» » »

Sam Roberts, Bridge To Nowhere Bass tabs (ver.1)

Artists:  A B C D E F G H I J K L M N O P Q R S T U V W X Y Z # 

Bridge To Nowhere Bass tabs (ver.1)

Sam Roberts Tabs
 Rating:
4/5 (5 votes)
Bridge To Nowhere lessons Tabs too difficult? Try these video lessons and learn fast
1
                -------------------------------------------------------------------------------


Tuning:standard

I think this sounds pretty close...try it out and let me know what you think.


Verses 1,2,3,4: play this for every verse

G|-----------------------------------------------------------------------------|
D|-----------------------------------------------------------------------------|
A|---44--2-----------------00--------------------------------------------------|
E|------------2-----------------0---4------------------------------------------|

Chorus:

G|-----------------------------------------------------------------------------|
D|-----------------------------------------------------------------------------|
A|--0000000---------00------------4------00000---------------------------------|
E|-----------0----------0----44-----------------0------------------------------|

G|---------------------------------------------------------------------------|
D|---------------------------------------------------------------------------|
A|---00----------------4---0-------------------------------------------------|
E|-------000000----44--------------------------------------------------------|

Bridge:

G|---------------------------------------------------------------------------|
D|---------------------------------------------------------------------------|
A|---22-------2---0----------------------------------------------------------|
E|-------000--------0--------------------------------------------------------|

G|---------------------------------------------------------------------------|
D|---------------------------------------------------------------------------|
A|--2--4--0--22------22--00------2-4-0---------------------------------------|
E|--------------00-----------00----------------------------------------------|
            
Submit corrections

comments powered by Disqus
↑ Back to top | Sam Roberts Bass for Bridge To Nowhere. Lyrics for acoustic guitar and electric guitar. 1 Tablatures and chords are parodies/interpretations of the original songs. You may use it for private study, scholarship, research or language learning purposes only