» » »

Nosi Balasi Tabs (ver.1)

Artists:  A B C D E F G H I J K L M N O P Q R S T U V W X Y Z # 

Nosi Balasi Tabs (ver.1)

Sampaguita
Rating:
0/5 (0 votes)
Tabs too difficult? Try these video lessons and learn fast.
                -------------------------------------------------------------------------------
                             NOSI BALASI - Sampaguita
-------------------------------------------------------------------------------

Gagawa ako video sa utube, hirap itab xD
Please paki-post.. hirap gumawa ng tab -_-

Tuning: Standard

         x x x x x x
e|-------------------7-------------------------------------------------------|
B|-------------5-6-5---8-10-10^12--17v15-13-15-15-13h15^17-------------------|
G|---4b~---5-7---------------------------------------------------------------|
D|-------7-------------------------------------------------------------------|
A|---------------------------------------------------------------------------|
E|---------------------------------------------------------------------------|

e|---15^1717171717-20^22-20-17-----------------------------------------------|
B|-----------------------------20------------------------20-17-22^24---------|
G|--------------------------------19b~202020v19-17h19-17---------------------|
D|---------------------------------------------------------------------------|
A|---------------------------------------------------------------------------|
E|---------------------------------------------------------------------------|

e|---------------------------------------------------------------------------|
B|-------10v8--6-6p5---5-6p5-6p5-------------------5-6-----------------------|
G|---9v7-------------7-----------7-5-7p5-7p5---5-7---------------------------|
D|-------------------------------------------7-------------------------------|
A|---------------------------------------------------------------------------|
E|---------------------------------------------------------------------------|

e|---------------------------------------------------------------------------|
B|---------------------------------------------------------------------------|
G|---18p17----17-18p17-18p17----17-18p17-20p17----18-------------------------|
D|---------19----------------19----------------19----------------------------|
A|---------------------------------------------------------------------------|
E|---------------------------------------------------------------------------|

e|---------------------------------------------------------------------------|
B|---17-18----17-------------------------------------------------------------|
G|---------19----17-19-15-17-14-15----14-------------------------------------|
D|---------------------------------17----15-17-14-15-------------------------|
A|---------------------------------------------------15-14-12----------------|
E|---------------------------------------------------------------------------|

e|---13p12p10----12p10-------10----------------------------------------------|
B|------------13-------13p12----13p12p10-13----------------------------------|
G|---------------------------------------------------------------------------|
D|---------------------------------------------------------------------------|
A|---------------------------------------------------------------------------|
E|---------------------------------------------------------------------------|

      T        T        8x    T        T       4x    T        T        4x
e|---17p13p10-17p10h13-------17p15p12-17p12h15------17p13p10-17p10h13--------|
B|---------------------------------------------------------------------------|
G|---------------------------------------------------------------------------|
D|---------------------------------------------------------------------------|
A|---------------------------------------------------------------------------|
E|---------------------------------------------------------------------------|

      T        T        4x    T       T       4x     T      T         8x
e|---15p12p10-15p10h12-------12p10p8-12p8h10--------12p8p7-12p7h8------------|
B|---------------------------------------------------------------------------|
G|---------------------------------------------------------------------------|
D|---------------------------------------------------------------------------|
A|---------------------------------------------------------------------------|
E|---------------------------------------------------------------------------|

e|---8-8/10-10-10-10/12-----------------------------------------------------|
B|---------------------------------------------------------------------------|
G|---------------------------------------------------------------------------|
D|---------------------------------------------------------------------------|
A|---------------------------------------------------------------------------|
E|---------------------------------------------------------------------------|


| /  slide up
| \  slide down
| h  hammer-on
| p  pull-off
| ~  vibrato
| +  harmonic
| x  palm mute
| b~ bend up and down =Þ
| ^  bend up
| v  bend down/release
===============================================================================
            
Tabs too difficult? Try these video lessons and learn fast.


comments powered by Disqus
↑ Back to top | Tablatures and chords are parodies/interpretations of the original songs. You may use it for private study, scholarship, research or language learning purposes only