» » »

There's Only One Way To Rock Tabs (ver.2)

Artists:  A B C D E F G H I J K L M N O P Q R S T U V W X Y Z # 

There's Only One Way To Rock Tabs (ver.2)

Sammy Hagar
Rating:
0/5 (0 votes)

Hard to play? Try these video lessons and learn fast.
                artist-sammy hagar
song-theres only one way to rock
words by-sammy hagar
guitarist-sammy hagar
let ring-L
palmute chord-x

verse riff
|---------------------------|
|---------------------------|
|-----2-4--2---2-x-4-2------|
|-4-4-2-4--2-4-2-x-4-2-4----|
|-4-4--------4---------4----|
|---------------------------|

verse
I've heard it called by different names
|---------------------|
|-L-------------------|
|-1-------------------|
|-2-x-x-x-x-x-x-x-x---|
|-2-2-2-2-2-2-2-2-2---|
|-0-0-0-0-0-0-0-0-0---|


All over the world, but it's all the same
|---------------------|
|-L-------------------|
|-1-------------------|
|-2-x-X-x-x-x-x-x-x---|
|-2-2-2-2-2-2-2-2-2---|
|-0-0-0-0-0-0-0-0-0---|

There's so many ways to make love -------|
A million ways to make love--------------|same as before^^
A million ways, I've been thinking of----|
Oh yea

Chorus:
But there's only one way
|----------------------|
|-L--------------------|
|-6-x-x-x-x-x-x-x-x----|
|-6-6-6-6-6-6-6-6-6----|
|-4-4-4-4-4-4-4-4-4----|
|----------------------|

There's only one way to rock
|----------------------|
|-L--------------------|
|-6-x-x-x-x-x-x-x-x----|
|-6-6-6-6-6-6-6-6-6----|
|-4-4-4-4-4-4-4-4-4----|
|----------------------|

verse-same chords
So many things can get you high
I'm gonna try em all just once before I die
And you can an*lyze this situation
To me it's all just mental masturbation

[Chorus] same chords for chorus again
change
theres only one way.. theres only one way to rock
|--------------------------------------|
|--------------------------------------|
|--------------------------------------|
|-6-6-6-6-6-6-6-6-7-7-7-7-9-9-9-9------|
|-4-4-4-4-4-4-4-4-5-5-5-5-7-7-7-7------|
|--------------------------------------|

bridge

Now quickly, check the hands on the clock It's 8:05, it's time to rock
|---------|--------|--------|--------|--------|--------|--------|--------|
|---------|--------|--------|--------|--------|--------|--------|--------|
|---------|--------|--------|--------|--------|--------|--------|--------|
|---------|--------|--------|--------|--------|--------|6-6-6-6-|6-6-6-6-|
|-2-2-2-2-|2-2-2-2-|8-8-8-8-|8-8-8-8-|6-6-6-6-|6-6-6-6-|4-4-4-4-|4-4-4-4-|
|-0-0-0-0-|0-0-0-0-|6-6-6-6-|6-6-6-6-|4-4-4-4-|4-4-4-4-|--------|--------|

verse/ same chords
And this world can disagree
They don't understand how it can be
And it's not my point of view
It's a fact, and you know that it's true

[Chorus]same chords as last verse

bridge same chords as last brigde
Crank up the drums, crank out the bass
Crank up my Les Paul in your face

chorus: same chords
            
Hard to play? Try these video lessons and learn fast. | Correct




comments powered by Disqus
↑ Back to top | Tablatures and chords are parodies/interpretations of the original songs. You may use it for private study, scholarship, research or language learning purposes only