>
 >
Baby's On Fire

Baby's On Fire Bass Tabs

Sammy Hagar - Baby's On Fire chords, tabs, tablatures, lyrics

Guitar lessons | Add/correct | Request | Top 50 tabs Artists:  A B C D E F G H I J K L M N O P Q R S T U V W X Y Z 0-9

Baby's On Fire Bass Tabs – Sammy Hagar

CD, Sheet music, Poster

Do you like Baby's On Fire? Share with your friends now
Bass TabsTabs
-----------------------------------------------------------------------------
		                  
            
-----------------------------------------------------------------------------

Tuning: standard tuning

=============================================================================

      
Bass



             E  E  E  E  E  E  E  E     E  E  E  E  E  E  E  E   
G||-------|--------------------------|--------------------------|
D||-------|--------------------------|--------------------------|
A||-------|--------------------------|--------------------------|
E||-------|--5--5--5--5--5--5--5--5--|--5--5--5--5--5--0--2--3--|


  E  E  E  E  E  E  E  E     E  E  E  E  E  E  E  E   
--------------------------|--------------------------|
--------------------------|--------------------------|
--------------------------|-----------------3--2-----|
--5--5--5--5--5--5--5--5--|--5--5--5--5--5--------3--|


  E  E  E  E  E  E  E  E     E  E  E  E  E  E  S S E   
--------------------------|---------------------------|
--------------------------|---------------------------|
--------------------------|---------------------------|
--5--5--5--5--5--5--5--5--|--5--5--5--5--5--5--5-0-3--|


  E  E  E  E  E  E  E  E     E  E  E  E  E  E  E  E     Q    Q    E  Q    E   
--------------------------|--------------------------|-----------------------|
--------------------------|--------------------------|-----------------------|
--------------------------|-----------------3--2-----|-----------------------|
--5--5--5--5--5--5--5--5--|--5--5--5--5--5--------5--|--L----5----5--5----5--|


  E  E  E  E  E  E  E  E     E  E  E  E  E  E  E  E   
--------------------------|--------------------------|
--------------------------|--------------------------|
--------------------------|--------------------------|
--5--5--5--5--5--0--2--3--|--5--5--5--5--5--5--5--5--|


  E  E  E  E  E  E  E  E     E  E  E  E  E  E  E  E   
--------------------------|--------------------------|
--------------------------|--------------------------|
-----------------3--2-----|--------------------------|
--5--5--5--5--5--------5--|--L--5--5--5--5--5--5--5--|


  E  E  E  E  E  E  E  E     E  E  E  E  E  E  E  E   
--------------------------|--------------------------|
--------------------------|--------------------------|
--------------------------|--------------------------|
--5--5--5--5--5--0--2--3--|--5--5--5--5--5--5--5--5--|


  E  E  E  E  E  E  E  E     Q    Q    E  E  E  E     Q    E  Q    Q    E   
--------------------------|------------------------|-----------------------|
--------------------------|------------------------|-----------------------|
--------------4--5--6--7--|--L----L----------7-----|-------7------------5--|
--5--5--5--5--------------|------------0--0--------|--0--------------------|


  Q    E  E  E  E  E  E     E  E  E  E  E  E  E  E     E  E  E  E  E  E  E  E   
-------------------------|--------------------------|--------------------------|
-------------------------|--------------------------|--------------------------|
--L----5-----5--5-----5--|--3--3--3--2--2--2--3--2--|--------------------------|
-------------------------|--------------------------|--5--5--5--5--5--5--5--5--|


  E  E  E  E  E  E  E  E     E  E  E  E  E  E  E  E   
--------------------------|--------------------------|
--------------------------|--------------------------|
-----------------3--2-----|--------------------------|
--5--5--5--5--5--------3--|--5--5--5--5--5--5--5--5--|


  E  E  E  E  E  E  E  E     Q    Q    E  Q    E     Q    E  E  E  E  E  E   
--------------------------|-----------------------|-------------------------|
--------------------------|-----------------------|-------------------------|
-----------------3--2-----|-----------------------|-------------------------|
--5--5--5--5--5--------5--|--L----5----5--5----5--|--5----5--5--5--0--2--3--|


  E  E  E  E  E  E  E  E     E  E  E  E  E  E  E  E     E  E  Q    E  E  E  E   
--------------------------|--------------------------|-------------------------|
--------------------------|--------------------------|-------------------------|
--------------------------|-----------------3--2-----|-------------------------|
--5--5--5--5--5--5--5--5--|--5--5--5--5--5--------5--|--L--5--5----5--5--5--5--|


  E  E  E  E  E  E  E  E     E  E  E  E  E  E  E  E   
--------------------------|--------------------------|
--------------------------|--------------------------|
--------------------------|--------------------------|
--5--5--5--5--5--0--2--3--|--5--5--5--5--5--5--5--5--|


  E  E  E  E  E  E  E  E     Q    Q    E  E  E  E     Q    Q    E  E  E  E   
--------------------------|------------------------|------------------------|
--------------------------|------------------------|------------------------|
--------------4--5--6--7--|--L----L----------7-----|------------7--7-----5--|
--5--5--5--5--------------|------------0--0--------|--0----0----------------|


  Q    E  E  E  E  E  E     E  E  E  E  E  E  E  E     E  E  E  E  E  E  E  E   
-------------------------|--------------------------|--------------------------|
-------------------------|--------------------------|--------------------------|
--L----5-----5--5-----5--|--3--3--3--2--2--2--3--2--|--------------------------|
-------------------------|--------------------------|--5--5--5--5--5--5--5--5--|


  E  E  E  E  E  E  E  E     E  E  E  E  E  E  E  E   
--------------------------|--------------------------|
--------------------------|--------------------------|
-----------------3--2-----|--------------------------|
--5--5--5--5--5--------3--|--5--5--5--5--5--5--5--5--|


  E  E  E  E  E  E  E  E     E  S  S E  E  E  E  Q     
--------------------------|---------------------------|
--------------------------|---------------------------|
--------------------------|----------7--5-----5-------|
--5--5--5--5--5--5--5--5--|--3--5s-7-------------5----|


  E  E  E  E  E  E  E  E     E  S  S E  E  E  E  Q     
--------------------------|---------------------------|
--------------------------|---------------------------|
--------------------------|----------7--5-----5-------|
--5-----5--------0--3--5--|--3--5s-7-------------5----|


  E  E  E  E  E  E  E  E     E  S  S E  E  E  E  Q       Q    Q    Q    E  E   
--------------------------|---------------------------|-----------------------|
--------------------------|---------------------------|-----------------------|
--------------3-----5--7--|----------7--5-----5-------|-----------------------|
--5-----0--3-----5--------|--3--5s-7-------------0----|--0----0----0----0--0--|


  E  E  E  E  Q       E  E  E  E  E  E  E  E     E  E  E  E  E  E  E  E   
-------------------|--------------------------|--------------------------|
-------------------|--------------------------|--------------------------|
-------------------|--------------------------|-----------------3--2-----|
--0--0--0----------|--5--5--5--5--5--5--5--5--|--5--5--5--5--5--------3--|


  E  E  E  E  E  E  E  E     E  E  E  E  E  E  E  E     Q    E  E  Q    E  E   
--------------------------|--------------------------|------------------------|
--------------------------|--------------------------|------------------------|
--------------------------|--------------------3--4--|--5-------5--3-------3--|
--5--5--5--5--5--5--5--5--|--5--5--5--5--5--5--------|------------------------|


  Q    E  E  Q    E  E     E  E  E  E  E  E  E  E     E  E  E  E  E  E  E  E   
------------------------|--------------------------|--------------------------|
------------------------|--------------------------|--------------------------|
--5-------5--3----------|--------------------------|--------------------3--4--|
------------------0--3--|--5--5--5--5--5--5--5--5--|--5--5--5--5--5--5--------|


  Q    E  E  Q    E  E     Q    E  E  Q    E  E     E  E  E  E  E  E  E  E   
------------------------|------------------------|--------------------------|
------------------------|------------------------|--------------------------|
--5-------5--3-------3--|--5-------5--3-------5--|--7--7--7--7--7--7--7--7--|
------------------------|------------------------|--------------------------|


  E  E  E  E  E  E  Q       E  E  H.              W                 
-------------------------|---------------------|-------------------|
-------------------------|---------------------|-------------------|
--7--7--7--7--7--5--3----|---------------------|-------------------|
-------------------------|--5------------------|-------------------|


  E  E  E  E  E  E  E  E     E  E  E  E  E  E  E  E   
--------------------------|--------------------------|
--------------------------|--------------------------|
--------------------------|-----------------3--2-----|
--5--5--5--5--5--5--5--5--|--5--5--5--5--5--------5--|


  E  E  E  E  E  E  E  E     E  E  E  E  E  E  E  E   
--------------------------|--------------------------|
--------------------------|--------------------------|
--------------------------|--------------------------|
--L--5--5--5--5--5--5--5--|--5--5--5--5--5--0--2--3--|


  E  E  E  E  E  E  E  E     E  E  E  E  E  E  E  E     Q    Q    E  E  Q     
--------------------------|--------------------------|-----------------------|
--------------------------|--------------------------|-----------------------|
--------------------------|--------------4--5--6--7--|--L----L---------------|
--5--5--5--5--5--5--5--5--|--5--5--5--5--------------|------------0--0-------|


  Q    E  E  S S S S E  E     Q    E  E  E  E  E  E   
---------------------------|-------------------------|
---------------------------|-------------------------|
-------7-----7-7-7-7-7--5--|--L----5-----5--5-----5--|
--0------------------------|-------------------------|


  E  E  E  E  E  E  E  E     E  E  E  E  E  E  E  E   
--------------------------|--------------------------|
--------------------------|--------------------------|
--3--3--3--2--2--2--3--2--|--------------------------|
--------------------------|--5--5--5--5--5--5--5--5--|


  E  E  E  E  E  E  E  E     E  E  E  E  E  E  E  E   
--------------------------|--------------------------|
--------------------------|--------------------------|
-----------------3--2-----|--------------------------|
--5--5--5--5--5--------3--|--5--5--5--5--5--5--5--5--|


  E  E  E  E  E  E  E  E     E  E  E  E  E  E  E  E   
--------------------------|--------------------------|
--------------------------|--------------------------|
--------------------------|--------------------------|
--5--5--5--5--5--0--2--3--|--5--5--5--5--5--5--5--5--|


  E  E  E  E  E  E  E  E     E  E  E  E  E  E  E  E   
--------------------------|--------------------------|
--------------------------|--------------------------|
-----------------3--2-----|--------------------------|
--5--5--5--5--5--------3--|--5--5--5--5--5--5--5--5--|


  E  E  E  E  E  E  E  E     E  E  E  E  E  E  E  E   
--------------------------|--------------------------|
--------------------------|--------------------------|
--------------------------|--------------------------|
--5--5--5--5--5--0--2--3--|--5--5--5--5--5--5--5--5--|


  E  E  E  E  E  E  E  E     E  E  E  E  E  E  E  E   
--------------------------|--------------------------|
--------------------------|--------------------------|
-----------------3--2-----|--------------------------|
--5--5--5--5--5--------3--|--5--5--5--5--5--5--5--5--|


  E  E  E  E  E  E  E  E     E  E  E  E  E  E  E  E   
--------------------------|--------------------------|
--------------------------|--------------------------|
--------------------------|--------------------------|
--5--5--5--5--5--0--2--3--|--5--5--5--5--5--5--5--5--|


  E  E  E  E  E  E  E  E     E  E  E  E  E  E  E  E   
--------------------------|--------------------------|
--------------------------|--------------------------|
-----------------3--2-----|--------------------------|
--5--5--5--5--5--------3--|--5--5--5--5--5--5--5--5--|


  E  E  E  E  E  E  E  E    
--------------------------||
--------------------------||
--------------------------||
--5--5--5--5--5--0--2--3--||




Duration Legend
---------------
W - whole
H - half
Q - quarter
E - 8th
S - 16th
T - 32nd
X - 64th
. - note dotted
|-n-|  - n-tuplets


Tablature Legend
----------------
L - tied note
x - dead note
g - grace note
(n) - ghost note
> - accentuded note
NH - natural harmonic
AH - artificial harmonic
TH - tapped harmonic
SH - semi harmonic
PH - pitch harmonic
h - hammer on
p - pull off
b - bend
br - bendRelease
pb - preBend
pbr - preBendRelease
brb - bendReleaseBend
\n/ - tremolo bar dip
\n - tremolo bar dive
-/n - tremolo bar Release up
/n\ - tremolo bar inverted dip
/n - tremolo bar return
-\n - tremolo bar Release down
S - shift slide
s - legato slide
/ -  slide into from below or out of upwards
\ -  slide into from above or out of downwards
~ - vibrato
W - wide vibrato
tr - trill
TP - tremolo picking
T - tapping
S - slap
P - pop
< - fade in
^ - brush up
v - brush down





Comments


Popular Sammy Hagar tabs & chords
Eagles Fly Chords
Give To Live Chords
Lay Your Hand On Me Chords
Plain Jane Chords
Dreams Tabs
Dreams Intro Tabs
Heavy Metal Tabs
I Don't Need Love Tabs
Right On Right Tabs
Eagles Fly Ukulele


Song lyrics



↑ Back to top | Tablatures and chords are parodies/interpretations of the original songs. You may use it for private study, scholarship, research or language learning purposes only
© 2014 AZChords.com Contact us | Privacy policy | DMCA | Add/correct tabs | Request tabs | Top 50 tabs