>
 >
My Girl

My Girl Chords

Sam Milby - My Girl chords, tabs, tablatures, lyrics

Guitar lessons | Add/correct | Request | Top 50 tabs Artists:  A B C D E F G H I J K L M N O P Q R S T U V W X Y Z 0-9

My Girl Chords – Sam Milby

CD, Sheet music, Poster

Do you like My Girl? Share with your friends now
ChordsChords v2TabsUkulele
"bass"
Verse/ Chorus
G|------------------------------------------7--10-----|
D|-----------------7--10-----------7--10--------------|
A|----------7--10---------8---10----------------------|
E|--8---10--------------------------------------------|

Lead Into Chorus
G|--------------------------------------------------|
D---------------------------------------------------|
A|---------------------------8----8----10-----10----|
E|--8----8----10----10------------------------------|
      I         Bet        You       Say

G|---------------------------------------------------------|
D|---------------------------------------------------------|
A|--------------------------12----10----8----10------------|
E|--8------8----10-----------------------------------------|
  what  can  make me  feel  this  way?

"Guitar intro"
e|-------------|-------------|-----------1-|-----------1-|
B|-----------1-|-----------1-|-------1-3---|-------1-3---|
G|-------0-2---|-------0-2---|---0-2-------|---0-2-------|
D|---0-2-------|---0-2-------|-3-----------|-3-----------|
A|-3-----------|-3-----------|-------------|-------------|
E|-------------|-------------|-------------|-------------|

         C        F           C
I've got sunshine on a cloudy day
              C            F                      C
And when it's cold outside, I've got the month of May

CHORUS:
  C Dm    F   G
  I guess you say,
  C        Dm      F         G
  What can make me feel this way?
  C
  My girl...
                F         G7
  Talkin' 'bout my girl

I've got so much honey the birds envy me
I've got a sweeter song (baby), than the birds and the bees
(Chorus)

I don't need no money, fortune or fame
I've got all the riches, baby, one man can claim
(Chorus)


_-_ this is our first tab ...
"hope you love it"

kung may time kayo text nyo kme... 09153471858- leonard
rafael-09163858796 or email us at





Comments


Popular Sam Milby tabs & chords
Cant Take My Eyes Of You Chords
Hindi Kita Iiwan 1 Chords
Mahal Pa Rin 1 Chords
Mahmahal Muli Chords
My Girl 1 Chords
Close To You Tabs
And I Love You So Ukulele
Each Passing Night Ukulele
Mahal Pa Rin Ukulele
Mahmahal Muli Ukulele


Song lyrics



↑ Back to top | Tablatures and chords are parodies/interpretations of the original songs. You may use it for private study, scholarship, research or language learning purposes only
© 2014 AZChords.com Contact us | Privacy policy | DMCA | Add/correct tabs | Request tabs | Top 50 tabs