» » »

Close To You Tabs (ver.1)

Artists:  A B C D E F G H I J K L M N O P Q R S T U V W X Y Z # 

Close To You Tabs (ver.1)

Sam Milby
Rating:
4/5 (2 votes)

Hard to play? Try these video lessons and learn fast.
                Sam Milby


Bali eto ung the nung Close Up commercial and OST ng Close to You na movie


Legend:
h - Hammer
p - Pull Off

Intro:

        E                  A               C#m              D
e|------------0---|------------0----|------------4---|---------2h3p2-----|
B|--0---T-----0-T-|------T-----2--T-|------T-----5-T-|------T-------3--T-|
G|--1---A-------A-|------A--------A-|------A-------A-|------A----------A-|
D|------P-------P-|----2-P--------P-|----6-P-------P-|----0-P----------P-|
A|--2------2------|--0------0-------|--4------4------|--0------0---------|
E|----------------|-----------------|----------------|-------------------|


Verse:

        E                  A               C#m              D
e|------------0---|------------0----|------------4---|---------2h3p2-----|
B|--0---T-----0-T-|------T-----2--T-|------T-----5-T-|------T-------3--T-|
G|--1---A-------A-|------A--------A-|------A-------A-|------A----------A-|
D|------P-------P-|----2-P--------P-|----6-P-------P-|----0-P----------P-|
A|--2------2------|--0------0-------|--4------4------|--0------0---------|
E|----------------|-----------------|----------------|-------------------|
                  there's nothing       i won't try.......



        E                  A               C#m              D
e|------------0---|------------0----|------------4---|---------2h3p2-----|
B|--0---T-----0-T-|------T-----2--T-|------T-----5-T-|------T-------3--T-|
G|--1---A-------A-|------A--------A-|------A-------A-|------A----------A-|
D|------P-------P-|----2-P--------P-|----6-P-------P-|----0-P----------P-|
A|--2------2------|--0------0-------|--4------4------|--0------0---------|
E|----------------|-----------------|----------------|-------------------|
      mine.......


        E                  A               C#m              D
e|------------0---|------------0----|------------4---|---------2h3p2-----|
B|--0---T-----0-T-|------T-----2--T-|------T-----5-T-|------T-------3--T-|
G|--1---A-------A-|------A--------A-|------A-------A-|------A----------A-|
D|------P-------P-|----2-P--------P-|----6-P-------P-|----0-P----------P-|
A|--2------2------|--0------0-------|--4------4------|--0------0---------|
E|----------------|-----------------|----------------|-------------------|
  divine.........


Verse 2 :

        E                  A               C#m              D
e|------------0---|------------0----|------------4---|---------2h3p2-----|
B|--0---T-----0-T-|------T-----2--T-|------T-----5-T-|------T-------3--T-|
G|--1---A-------A-|------A--------A-|------A-------A-|------A----------A-|
D|------P-------P-|----2-P--------P-|----6-P-------P-|----0-P----------P-|
A|--2------2------|--0------0-------|--4------4------|--0------0---------|
E|----------------|-----------------|----------------|-------------------|
                      everytime.....           see...



        E                  A               C#m              D
e|------------0---|------------0----|------------4---|---------2h3p2-----|
B|--0---T-----0-T-|------T-----2--T-|------T-----5-T-|------T-------3--T-|
G|--1---A-------A-|------A--------A-|------A-------A-|------A----------A-|
D|------P-------P-|----2-P--------P-|----6-P-------P-|----0-P----------P-|
A|--2------2------|--0------0-------|--4------4------|--0------0---------|
E|----------------|-----------------|----------------|-------------------|
              come........                    I always......

        E                  A               C#m              D
e|------------0---|------------0----|------------4---|---------2h3p2-----|
B|--0---T-----0-T-|------T-----2--T-|------T-----5-T-|------T-------3--T-|
G|--1---A-------A-|------A--------A-|------A-------A-|------A----------A-|
D|------P-------P-|----2-P--------P-|----6-P-------P-|----0-P----------P-|
A|--2------2------|--0------0-------|--4------4------|--0------0---------|
E|----------------|-----------------|----------------|-------------------|
  me....                                                found.....

    E  A
e|---------|
B|--0--0---|
G|--1--2---|
D|--2--2---|
A|--2--2---|
E|---------|
  one......


Chorus (Strum)


      E       F#m    G#m      A
e|---0000----2222----4444----0000------|
B|---0000----2222----4444----2222------|
G|---1111----2222----4444----2222------|
D|---2222----4444----6666----2222------|
A|---2222----4444----6666----0000------|
E|---0000----2222----4444----0000------|
   Oh...   Smile..  Star..   Shine....

      E       F#m    G#m      A
e|---0000----2222----4444----0000------|
B|---0000----2222----4444----2222------|
G|---1111----2222----4444----2222------|
D|---2222----4444----6666----2222------|
A|---2222----4444----6666----0000------|
E|---0000----2222----4444----0000------|
   Smile...   only..  Smile..  Star....

      E       F#m    G#m      A
e|---0000----2222----4444----0000------|
B|---0000----2222----4444----2222------|
G|---1111----2222----4444----2222------|
D|---2222----4444----6666----2222------|
A|---2222----4444----6666----0000------|
E|---0000----2222----4444----0000------|
   Oh...   Smile..  Star..   Shine....

      E       F#m    G#m      A
e|---0000----2222----4444----0000------|
B|---0000----2222----4444----2222------|
G|---1111----2222----4444----2222------|
D|---2222----4444----6666----2222------|
A|---2222----4444----6666----0000------|
E|---0000----2222----4444----0000------|
   Smile...   only..  Smile..  Star....


Adlib:(Just Add Effects."Wah Wah" ata ung gamit d2..)

      E       F#m    G#m      A
e|---0000----2222----4444----0000------|
B|---0000----2222----4444----2222------|
G|---1111----2222----4444----2222------|
D|---2222----4444----6666----2222------|
A|---2222----4444----6666----0000------|
E|---0000----2222----4444----0000------|


Verse 3:(Strumming Na)

A              C#m
with you by my side
D                E
girl it feels so right
A                C#m
and now that i'm close to you
D               E
i could stay all night
A                 C#m
no matter where i go
D                E
no matter what i do
A                C#m
in the end your smile
D                E
brings me back to you

(Chorus)

Refrain:
             F#m
you shine so true
G#m                    F#m
i can't believe you're mine
G#m                F#m
and everything may change
G#m              F#m     E-
but to me you'll always shine

Outro:

      E       F#m    G#m      A
e|---0000----2222----4444----0000------|
B|---0000----2222----4444----2222------|
G|---1111----2222----4444----2222------|
D|---2222----4444----6666----2222------|
A|---2222----4444----6666----0000------|
E|---0000----2222----4444----0000------|
   Oh...   Smile..  Star..   Shine....

      E       F#m    G#m      A
e|---0000----2222----4444----0000------|
B|---0000----2222----4444----2222------|
G|---1111----2222----4444----2222------|
D|---2222----4444----6666----2222------|
A|---2222----4444----6666----0000------|
E|---0000----2222----4444----0000------|
   Smile...   only..  Smile..  Star....


      E       F#m    G#m      A
e|---0000----2222----4444----0000------|
B|---0000----2222----4444----2222------|
G|---1111----2222----4444----2222------|
D|---2222----4444----6666----2222------|
A|---2222----4444----6666----0000------|
E|---0000----2222----4444----0000------|
   Oh...   Smile..  Star..   Shine....

      E       F#m    G#m      A       E
e|---0000----2222----4444----0000-----0-|
B|---0000----2222----4444----2222-----0-|
G|---1111----2222----4444----2222-----1-|
D|---2222----4444----6666----2222-----2-|
A|---2222----4444----6666----0000-----2-|
E|---0000----2222----4444----0000-----0-|
   Smile...   only..  Smile..  Star....

maganda 2ng song na 2....sana magus2han nyu kung may mali sorry pero i think this is 75% correct..
            
Hard to play? Try these video lessons and learn fast. | Correct




comments powered by Disqus
↑ Back to top | Tablatures and chords are parodies/interpretations of the original songs. You may use it for private study, scholarship, research or language learning purposes only