» » »

Samiam, Sunshine Bass tabs (ver.1)

Artists:  A B C D E F G H I J K L M N O P Q R S T U V W X Y Z # 

Sunshine Bass tabs (ver.1)

Samiam Tabs
 Rating:
4/5 (4 votes)
Sunshine lessons Tabs too difficult? Try these video lessons and learn fast
                Band: Samiam		

One of the best songs of this album
I know the timing isn’t perfect…sorry

Please rate

~ = let ring

Verse x2

G|--------------------------------------------------|
D|--------------------------------------------------| 
A|-7-7-777---------4-4-444--------------------------|
E|--------5-55-5555-------2-22-22225-5-5555-55-5555-|

G|------------------------------------------------------------------|
D|------------------------------------------------------------------| 
A|-7-7-777---------7-7-777------------------------------------------|
E|--------5-55-5555-------5-55-55559-9-9997-77-77775-5-5555-55-5555-|

Pre-chorus: (0:31)

G|------------------|
D|------------------| 
A|------------------|
E|-7777777777777777-|


Chorus: 0:33

G|----------------------------------|
D|----------------------------------| 
A|-------------------------7-777777-|
E|-9-9999997-7777775-555555---------|

G|----------------------------------|
D|----------------------------------| 
A|-----------------7-777777---------|
E|-5-55555555555555--------7-777777-|

G|----------------------------------|
D|----------------------------------| 
A|-------------------------7-777777-|
E|-9-9999997-7777775-555555---------|

G|----------------------------------|
D|----------------------------------| 
A|----------------------------------|
E|-5-555555555555557777777777777777-|

Then repeat:

Verse (0:51) x2
Pre-chorus (1:23)
Chorus 1:25

Then:

Bridge: (1:42) x2

G|----------------------------------|
D|----------------------------------| 
A|----------------------------------|
E|-2-222222222222225-55555555555555-|


G|----------------------------------|
D|----------------------------------| 
A|----------------------------------|
E|-9-999999999999995-55555555555555-|


Bridge end: (2:00)

G|----------------------------------|
D|----------------------------------| 
A|----------------------------------|
E|-2-222222222222225~---------------|


Pause, then:

Pre-chorus (2:19)
Chorus (2:21)
Bridge (2:38) x3
Bridge end (3:05)
            
Submit corrections

comments powered by Disqus
↑ Back to top | Samiam Bass for Sunshine. Lyrics for acoustic guitar and electric guitar. Tablatures and chords are parodies/interpretations of the original songs. You may use it for private study, scholarship, research or language learning purposes only