» » »

Samiam, She's A Part Of Me Tabs (ver.1)

Artists:  A B C D E F G H I J K L M N O P Q R S T U V W X Y Z # 

She's A Part Of Me Tabs (ver.1)

Samiam Tabs
Rating:
0/5 (0 votes)
She's A Part Of Me lessons Tabs too difficult? Try these video lessons and learn fast
                She's a Part Of Me by SAMIAM


Standart Tuning

Verse
--1-+-2-+-3-+-4-+-1-+-2-+-3-+-4-+-1-+-2-+-3-+-4-+-1-+-2-+-3-+-4-+-|
e|----------------------------------------------------------------|
B|----------------------------------------------------------------|
G|9--66----------999966----------99--66----------999966-----------|   2X
D|9--66--66--77--999966--999977--99--66--66--77--999966--999977---|
A|7--44--66--77--777744--999977--77--44--66--77--777744--999977---|
E|-------44--55----------777755----------44--55----------777755---|


Chorus

--1-+-2-+-3-+-4-+-1-+-2-+-3-+-4-+-1-+-2-+-3-+-4-+-1-+-2-+-3-+-4-+--|
e|-----------------------------------------------------------------|
B|-----------------------------------------------------------------|
G|6-6-6--4---6-22-----------------6-6-6--4---6-22------------------|
D|6-6-6--4---6-22-2--44--66--77---6-6-6--4---6-22-2--44--66--77--2-|
A|4-4-4--2---4-00-2--44--66--77---4-4-4--2---4-00-2--44--66--77--2-|
E|----------------0--22--44--55-------------------0--22--44--55--0-|

--1-+-2-+-3-+-4-+-1-+-2-+-3-+-4-+-1-+-2-+-3-+-4-+-1-+-2-+-3-+-4-+--|
e|-----------------------------------------------------------------|
B|-----------------------------------------------------------------|
G|-----------------------------------------------------------------|
D|222-444-666-777-222-444-666-777-222-444-666-777-2222444466667777-|
A|222-444-666-777-222-444-666-777-222-444-666-777-2222444466667777-|
E|000-222-444-555-000-222-444-555-000-222-444-555-0000222244445555-|
  pp  pp  pp  pp  pp  pp  pp  pp  pp  pp  pp  pp


(p = palm mute)


Play it like that:

Verse
Chorus
Verse
Chorus
Chorus
Verse (bass)
Chorus


Verse

every sunday
my little girl and me
we take a ride
just get up and go
four blood shot eyes
rolling down the road
we look like trees
on a windy day


Chorus

we stagger drunk and home we sway,
to and fro
she's a part of me,
that's why we fight


Verse

as long as time is free
and we got a place to hide
we like to sleep in
we keep a low profile
saying peoples' names
and all the things they don't know


Chorus

we stagger drunk and home we sway,
to and fro
she's a part of me,
that's why we fight


Chorus

everybody says so,
they keep low
she's a part of me,
that's why we fight


Verse (bass)

as long as time is free
and we got a place to hide
we like to sleep in
we keep a low profile
she's good to me
at least she said so


Chorus

we stagger drunk and home we sway,
to and fro
everybody says so

she's a part of me,
that's why we fight
            
Submit corrections

comments powered by Disqus
↑ Back to top | Samiam Tabs for She's A Part Of Me. Lyrics for acoustic guitar and electric guitar. Tablatures and chords are parodies/interpretations of the original songs. You may use it for private study, scholarship, research or language learning purposes only