» » »

Samiam, Holiday Parade Tabs (ver.1)

Artists:  A B C D E F G H I J K L M N O P Q R S T U V W X Y Z # 

Holiday Parade Tabs (ver.1)

Samiam Tabs
 Rating:
4/5 (4 votes)
Holiday Parade lessons Tabs too difficult? Try these video lessons and learn fast
1
                -------------------------------------------------------------------------------
-------------------------------------------------------------------------------
and i found no tab for it so yeah...here it goes :)

find mistakes :)

Tuning:Standard :) 

Intro and verse
e|-----------------------------------|---------------------------------------|
B|-----------------------------------|---------------------------------------|
G|---5---5---4---4---5---5---2---2---|---5---5---4---4-----------5---5-------|
D|-----------------------------------|-------------------5---5---------------|
A|-7---7---5---5---7---7---0---0-----|-7---7---5---5---7---7---7---7---------|
E|-----------------------------------|---------------------------------------|x4

 pre chorus
e|---------------------|
B|---------------------|
G|---0--0--0--0--------|
D|--2--2--2--2---------|
A|-3--3--3--3----------|
E|---------------------|x8

e|---------------------|
B|---------------------|
G|---------------------|
D|---------------------|
A|---------------------|
E|-2-------------------| ring this note at the eight time

Chorus
e|---------------------------------------------------------------------------|
B|---------------------------------------------------------------------------|
G|---------------------------------------------------------------------------|
D|--2222222222222222-----------------3-2-----2-------------------------------|
A|------------------3333333333333333-----5-3---5-3-2-------------------------|
E|---------------------------------------------------------------------------|x2

2nd verse
e|-----------------------------------|---------------------------------------|
B|-----------------------------------|---------------------------------------|
G|---5---5---4---4---5---5---2---2---|---5---5---4---4-----------5---5-------|
D|-----------------------------------|-------------------5---5---------------|
A|-7---7---5---5---7---7---0---0-----|-7---7---5---5---7---7---7---7---------|
E|-----------------------------------|---------------------------------------|x4
 
 pre chorus again
e|---------------------|
B|---------------------|
G|---0--0--0--0--------|
D|--2--2--2--2---------|
A|-3--3--3--3----------|
E|---------------------|x8

e|---------------------|
B|---------------------|
G|---------------------|
D|---------------------|
A|---------------------|
E|-2-------------------| ring this note at the eight time

Chorus once more
e|---------------------------------------------------------------------------|
B|---------------------------------------------------------------------------|
G|---------------------------------------------------------------------------|
D|--2222222222222222-----------------3-2-----2-------------------------------|
A|------------------3333333333333333-----5-3---5-3-2-------------------------|
E|---------------------------------------------------------------------------|x2

Instrumental Break - note A and D string parts are played on seperate guitars
e|-------------------------------------------------------------------|
B|-------------------------------------------------------------------|
G|---5---5---5---5---4---4---4---4---5---5---5---5----2---2---2---2--|
D|-------------------------------------------------------------------|
A|-7---7---7---7---5---5---5---5---7---7---7---7---0---0---0---0-----|
E|-------------------------------------------------------------------|x3
 
on third time add this to the end leading to the last pre-chorus repetition
e|-------------------------------------------------------------------|
B|-------------------------------------------------------------------|
G|-------------------------------------------------------------------|
D|---2---2---2---2---------------------------------------------------|
A|-------------------------------------------------------------------|
E|-0---0---0---0-----------------------------------------------------|

 pre chorus
e|---------------------|
B|---------------------|
G|---0--0--0--0--------|
D|--2--2--2--2---------|
A|-3--3--3--3----------|
E|---------------------|x8

e|---------------------|
B|---------------------|
G|---------------------|
D|---------------------|
A|---------------------|
E|-2-------------------| ring this note at the eight time

Chorus last time
e|---------------------------------------------------------------------------|
B|---------------------------------------------------------------------------|
G|---------------------------------------------------------------------------|
D|--2222222222222222-----------------3-2-----2-------------------------------|
A|------------------3333333333333333-----5-3---5-3-2-------------------------|
E|---------------------------------------------------------------------------|x2

Outro/ ending of chorus....you can really improvise here :)
e|---------------------------------------------------------------------------|
B|---------------------------------------------------------------------------|
G|---------------------------------------------------------------------------|
D|-5-------------5------------2-----5------3---2-----------------------------|
A|-------3-3-5------3---5----------------------------------------------------|
E|---------------------------------------------------------------------------|x2 
on last time play the Cmaj chord from the A to B string :) and thats it :) 
WOOT :) :) :)  


===============================================================================
            
Submit corrections

comments powered by Disqus
↑ Back to top | Samiam Tabs for Holiday Parade. Lyrics for acoustic guitar and electric guitar. 1 Tablatures and chords are parodies/interpretations of the original songs. You may use it for private study, scholarship, research or language learning purposes only