>
 >
Good Enough

Good Enough Guitar Tabs

Samiam - Good Enough chords, tabs, tablatures, lyrics

Guitar lessons | Add/correct | Request | Top 50 tabs Artists:  A B C D E F G H I J K L M N O P Q R S T U V W X Y Z 0-9

Good Enough Guitar Tabs – Samiam

CD, Sheet music, Poster

Do you like Good Enough? Share with your friends now
Tabs
E-----------------------|-----------------------|
B-----------------------|-----------------------|
G---------7--10---------|---------7--10---------|
D---------7--10---------|---------7--10---------|
A---------5--8----------|---------5--8----------|
E--5~~~-----------------|--5~~~-----------------|
                                                                      
E--------------------|             E-----------------|------|
B--------------------|             B-----------------|------|
G---------10--7--10--|(x2)         G---7--10--7--10--|--10--|
D--7--10--10--7--10--|             D---7--10--7--10--|--10--|
A--7--10--8---5--8---|             A---5--8---5--8---|--8---|
E--5--8--------------|             E-----------------|------|

E--------------|
B--------------|
G-------7--10--|(x4)
D---10--7--10--|
A---10--5--8---|
E---8----------|
  
E--------------------|             E-----------------|------|
B--------------------|             B-----------------|------|
G---------10--7--10--|(x2)         G---7--10--7--10--|--10--|
D--7--10--10--7--10--|             D---7--10--7--10--|--10--|
A--7--10--8---5--8---|             A---5--8---5--8---|--8---|
E--5--8--------------|             E-----------------|------|

E--------------|              E-------------|
B--------------|              B-------------|
G-------7--10--|(x4)               G--7--10------|
D---10--7--10--|              D--7--10--10--|
A---10--5--8---|              A--5--8---10--|
E---8----------|              E---------8---|

E-------------|                    E-----------------|
B-------------|                    B-----------------|
G--7--10------|                    G-------7-----10--|(x4)
D--7--10--10--|                    D---10--7--7--10--|
A--5--8---10--|                    A---10--5--7--8---|
E---------8---|                    E---8------5------|

E------|
B------|
G--10--|
D--10--|
A--8---|
E------|
                                                                        
    SOLO:                                                               
E------------------------------------------------------|
B------------------------------------------------------|
G---12--12--12--12--12--10--9--------------------------|
D------------------------------12--10------10--12--10--|
A--------------------------------------12--------------|
E------------------------------------------------------|
                                                                        
E----------------------------------------------------|
B----------------------------------------------------|
G---------------------------12--12--12--9--12/14--9--|
D---10--10--10--10--12--10---------------------------|
A----------------------------------------------------|
E----------------------------------------------------|

E-----------------------------------------------|
B-----------------------------------------------|
G---12--12--12--12--12--10--12--10--9h10p9------|
D-------------------------------------------10--|
A-----------------------------------------------|
E-----------------------------------------------|

E-----------------------------------------------------|
B-----------------------------------------------------|
G---------------------------12--12--12--9--12/14--12--|
D---10--10--10--10--12--10----------------------------|
A-----------------------------------------------------|
E-----------------------------------------------------|

E--------------|
B--------------|
G---7--10------|
D---7--10--10--|
A---5--8---10--|
E----------8---|
                                                                        
                          
E-----------------|
B-----------------|
G-------7-----10--|(x4)
D---10--7--7--10--|
A---10--5--7--8---|
E---8------5------|
                            
E---------------------------|--------------------|
B---------------------------|--------------------|
G--7-9--7-9--12--9-10-9--5--|--7-9--7-9--12--14--|
D--x-x--x-x--x---x-x--x--x--|--x-x--x-x--x---x---|
A--5/7--5/7--10--7/8-\7--3--|--5/7--5/7--10--12--|
E---------------------------|--------------------|

E----------------------------|------------------------|
B----------------------------|------------------------|
G---7-9--7-9--12--9-10-9--5--|--9-10-9--7-9-7--5-7-5--|
D---x-x--x-x--x---x-x--x--x--|--x-x--x--x-x-x--x-x-x--|
A---5/7--5/7--10--7/8-\7--3--|--7/8-\7--5/7\5--3/5\3--|
E----------------------------|------------------------|

E--------------||
B--------------||
G---7--10------||
D---7--10--10--||
A---5--8---10--||
E----------8---||





Comments


Popular Samiam tabs & chords
Capsized Bass Tabs
Dull Bass Tabs
My Convenience Bass Tabs
No Size That Small Bass Tabs
No Size That Small 1 Bass Tabs
Mexico Chords
No Size That Small Chords
Stepson Drum Tabs
No Size That Small Tabs
Stepson Tabs


Song lyrics



↑ Back to top | Tablatures and chords are parodies/interpretations of the original songs. You may use it for private study, scholarship, research or language learning purposes only
© 2014 AZChords.com Contact us | Privacy policy | DMCA | Add/correct tabs | Request tabs | Top 50 tabs