» » »

Go Away Bass tabs (ver.1)

Artists:  A B C D E F G H I J K L M N O P Q R S T U V W X Y Z # 

Go Away Bass tabs (ver.1)

Samiam
Rating:
0/5 (0 votes)

Hard to play? Try these video lessons and learn fast.
                
technically play through out the whole song.

G|----------------11----11----11---:
D|----12----12-------12----12----12: 
A|-10----10----10------------------:
E|---------------------------------:

G|----------------11----11----11---:
D|----12----12-------12----12----12: 
A|-10----10----10------------------:
E|---------------------------------:

G|----------------11----11----11---:
D|----12----12-------12----12----12: 
A|-10----10----10------------------:
E|---------------------------------:

G|----------------11----11----11---:
D|----12----12-------12----12----12: 
A|-10----10----10------------------:
E|---------------------------------:
            
Hard to play? Try these video lessons and learn fast. | Correct




comments powered by Disqus
↑ Back to top | Tablatures and chords are parodies/interpretations of the original songs. You may use it for private study, scholarship, research or language learning purposes only