» » »

Samiam, Dull Bass tabs (ver.2)

Artists:  A B C D E F G H I J K L M N O P Q R S T U V W X Y Z # 

Dull Bass tabs (ver.2)

Samiam Tabs
 Rating:
4/5 (4 votes)
Dull lessons Tabs too difficult? Try these video lessons and learn fast
1
                I've just tabbed out the parts, youll have to figure out all the timings.

KEY:
. = palm mute
~ = let ring

LEAD:

INTRO:
e|---------------------------------------------------------------------------|
B|---------------------------------------------------------------------------|
G|-11-11-----7-7-----------9-9-----------------------------------------------|
D|-11----11--7---7--7-7----9-9-----------------------------------------------|
A|-9---------5------7---7--7-7-----------------------------------------------|
E|------------------5--------------------------------------------------------|

VERSE:
e|---------------------------------------------------------------------------|
B|---------------------------------------------------------------------------|
G|-11~-----------------------------------------------------------------------|
D|-11~--11----11----11----11-14----14----11----------------------------------|
A|-9-~-----12----12----12-------12----12----12-(just-play-with-those-notes---|
E|---------------------------------------------------------------------------|

e|------------------------------------|R--------------------------------------|
B|------------------------------------|E--------------------------------------|
G|-11-11-11-11-11-11-11-9-9-9-9-9-9-9-|P-7-7-7-7-7-7-7-7-7-7-7----------------|
D|-11-11-11-11-11-11-11-9-9-9-9-9-9-9-|E-7-7-7-7-7-7-7-7-7-7-7----------------|
A|-9--9?-9?-9?-9?-9--9--7-7-7-7-7-7-7-|A-5-5-5-5-5-5-5-5-5-5-5----------------|
E|------------------------------------|T-.-.-.-.-.-.-.------------------------|

CHORUS
e|---------------------------------------------------------------------------|
B|---------------------------------------------------------------------------|
G|-111111111-99999-7777777777-111111111-------7777777777---------------------|
D|-111111111-99999-7777777777-111111111-77777-7777777777---------------------|
A|-9-9-9-9-9-77777-5555555555-9-9-9-9-9-77777-5555555555---------------------|
E|--------------------------------------55555--------------------------------|

BRIDGE
e|---------------------------------------------------------------------------|
B|---------------------------------------------------------------------------|
G|-11-~------7~--------------------------------------------------------------|
D|-11-~--7~--7~---11----11----11h12----11----11----11h12----11---------------|
A|-9--~--7~--5~------12----12-------12----12----12-------12------------------|
E|-------5~------------------------------------------------------------------|

e|---------------------------------------------------------------------------|
B|---------------------------------------------------------------------------|
G|----------------------------14----14---------------------------------------|
D|-11----11----11h12----11---------------------------------------------------|
A|----12----12-------12----12----12------------------------------------------|
E|---------------------------------------------------------------------------|

Back to the intro riff, then:

e|--------------------------------------|-------------------------------------|
B|--------------------------------------|-------------------------------------|
G|-1111111111-16-16-16-16--14-14-14-14--|-1111111111111-9-9-9-9-9-9-9-77777777|
D|-1111111111-xx-xx-xx-xx--xx-xx-xx-xx--|-1111111111111-9-9-9-9-9-9-9-77777777|
A|-9-9-9-9-9--14-14-14-14-/12-12-12-12--|-9-9-9-9-9-9-9-7-7-7-7-7-7-7-55555555|
E|--------------------------------------|-------------------------------------|
            
Submit corrections

comments powered by Disqus
↑ Back to top | Samiam Bass for Dull. Lyrics for acoustic guitar and electric guitar. 1 Tablatures and chords are parodies/interpretations of the original songs. You may use it for private study, scholarship, research or language learning purposes only