» » »

Samiam, Capsized Tabs (ver.1)

Artists:  A B C D E F G H I J K L M N O P Q R S T U V W X Y Z # 

Capsized Tabs (ver.1)

Samiam Tabs
Rating:
0/5 (0 votes)
Hard to play? Try these video lessons and learn fast.
                VERSE fig. a
e|--------------|
B|--------------|
G|--------7-----|
D|--9--5--7--7--|
A|--9--5--5--7--|
E|--7--3-----5--|

VERSE fig. b
e|-----------------|
B|-----------------|
G|--------7--------|
D|--9--5--7--9--7--|
A|--9--5--5--9--7--|
E|--7--3-----7--5--|

CHORUS
e|--------------------------------------------------------|
B|--------------------------------------------------------|
G|--7-----7-----7-----7--------------7-----7-----7--------|
D|--7--9--7--9--7--9--7--9--7--5--7--7--9--7--9--7--9--5--|
A|--5--9--5--9--5--9--5--9--7--5--7--5--9--5--9--5--9--5--|
E|-----7-----7-----7-----7--5--3--5-----7-----7-----7--3--|

BRIDGE
e|---------------------------------------X2
B|----------------------------------------|
G|--7-----------------7-7-----------------|
D|--7--7--9--5--7--9--x-x--9--7--5--7--9--|
A|--5--7--9--5--7--9--5\4--9--7--5--7--9--|
E|-----5--7--3--5--7-------7--5--3--5--7--|

"oh, but the things kids say" all p.m.
e|---------------------------------------|
B|---------------------------------------|
G|--6-6-6-7-7-7-12-12-12-11-11-11-11-11--|
D|--9-9-9-9-9-9--9--9--9--9--9--9--9--9--|
A|---------------------------------------|
E|---------------------------------------|
            

comments powered by Disqus
↑ Back to top | Samiam Tabs for Capsized. Lyrics for acoustic guitar and electric guitar. Tablatures and chords are parodies/interpretations of the original songs. You may use it for private study, scholarship, research or language learning purposes only