» » »

Boy With Monkey Tabs (ver.1)

Artists:  A B C D E F G H I J K L M N O P Q R S T U V W X Y Z # 

Boy With Monkey Tabs (ver.1)

Samiam
Rating:
0/5 (0 votes)

Hard to play? Try these video lessons and learn fast.
                Samiam- Boy with Monkey


e|------0-0-0-0-0-0-0-0-0-0-0-0-0-0-0-0--------------------------------------|
B|------5-5-6-6-5-5-6-6-5-5-6-6-5-5-6-6--------------------------------------|
G|---------------------------------------------------------------------------|
D|---------------------------------------------------------------------------|
A|---------------------------------------------------------------------------|
E|---------------------------------------------------------------------------|
    so your still runnin' from the girls...

e|---------------------------------------------------------------------------|
B|---------------------------------------------------------------------------|
G|--------------6-6-6-6--7-7-7-7-7-7-7-7-------------------------------------|
D|----7-7-7-7---4-4-4-4--5-5-5-5-5-5-5-5-------------------------------------|
A|----5-5-5-5----------------------------------------------------------------|
E|---------------------------------------------------------------------------|

     chorus
e|---------------------------------------------------------------------------|
B|---------------------------------------------------------------------------|
G|---------------------------------------------------------------------------|
D|---------------7-7-6-6-7---7-7-6-6-4---------------------------------------|
A|---7-7-7-7-----5-5-4-4-7---5-5-4-4-4---------------------------------------|
E|---5-5-5-5-------------5-----------2---------------------------------------|

Solo

e|---------------------------------------------------------------------------|
B|-----4-5-7-4-5-4-5554--555-4----4-5----------------------------------------|
G|----5-----------------5-------2-2------------------------------------------|
D|---------------------------------------------------------------------------|
A|---------------------------------------------------------------------------|
E|---------------------------------------------------------------------------|
            
Hard to play? Try these video lessons and learn fast. | Correct




comments powered by Disqus
↑ Back to top | Tablatures and chords are parodies/interpretations of the original songs. You may use it for private study, scholarship, research or language learning purposes only