>
 >
Unholy Passion

Unholy Passion Bass Tabs

Samhain - Unholy Passion chords, tabs, tablatures, lyrics

Guitar lessons | Add/correct | Request | Top 50 tabs Artists:  A B C D E F G H I J K L M N O P Q R S T U V W X Y Z 0-9

Unholy Passion Bass Tabs – Samhain

CD, Sheet music, Poster

Do you like Unholy Passion? Share with your friends now
Bass Tabs
Band:Samhain

Intro: 3x
G--------------------------------------------------------------------|
D----------------------------------11-----------------11-----11------|
A-88888--6600666006888888888-9------88888--8888-9------9----------|
E--------------------------------------------------------------------|

Chorus: Inside **s only play one time through, the rest play twice through.
G----------------------------------------8-----------------------------------|
D----------------------------10------6-------6------10--------8--------------|
A-*888886600666666666*-8------8----------------8------86-----6-----------|
E----------------------------------------------------------------------------|

Bridge: 8x
G----------------------------------------------------------------------------|
D---------------------1111--------------------------------------------------|
A-8888888889-----9---------------------------------------------------------|
E----------------------------------------------------------------------------|

Chorus:
G-----------------8------------------------------------8--------------------|
D-----10------6-------6------10-------8-------10----6-----6------10---------|
A--8------8---------------8------86-----68------8-----------8-------8--88-|
E---------------------------------------------------------------------------|

Intro: 3x
G--------------------------------------------------------------------|
D----------------------------------11-----------------11-----11------|
A-88888--6600666006888888888-9------88888--8888-9------9----------|
E--------------------------------------------------------------------|

Chorus: Inside **s only play one time through, the rest play twice through.
G----------------------------------------8-----------------------------------|
D----------------------------10------6-------6------10--------8--------------|
A-*888886600666666666*-8------8----------------8------86-----6-----------|
E----------------------------------------------------------------------------|

Bridge: 8x
G----------------------------------------------------------------------------|
D--------------11---11------------------------------------------------------|
A-8888888889-----9---------------------------------------------------------|
E----------------------------------------------------------------------------|

Outro:
G----------------------------------------------------------------------------|
D----------------------------------------------------------------------------|
A-8888888--88---------------------------------------------------------------|
E----------------------------------------------------------------------------|





Comments


Popular Samhain tabs & chords
Descent 1 Bass Tabs
The Shift/Macabre Bass Tabs
All Murder, All Guts, All Fun Chords
Archangel Chords
Horror Biz Chords
London Dungeon Tabs
Mephisto Waltz Tabs
Samhain Tabs
Archangel Ukulele
The Shift Ukulele


Song lyrics



↑ Back to top | Tablatures and chords are parodies/interpretations of the original songs. You may use it for private study, scholarship, research or language learning purposes only
© 2014 AZChords.com Contact us | Privacy policy | DMCA | Add/correct tabs | Request tabs | Top 50 tabs