» » »

Samhain, Unholy Passions Bass tabs (ver.1)

Artists:  A B C D E F G H I J K L M N O P Q R S T U V W X Y Z # 

Unholy Passions Bass tabs (ver.1)

Samhain Tabs
 Rating:
4/5 (4 votes)
Unholy Passions lessons Tabs too difficult? Try these video lessons and learn fast
                Band:Samhain

Intro: 3x
G--------------------------------------------------------------------|
D----------------------------------11-----------------11-----11------|
A-88888--66006–66006–88888–8888-9------88888--8888-9------9----------|
E--------------------------------------------------------------------|

Chorus: Inside **’s only play one time through, the rest play twice through.
G----------------------------------------8-----------------------------------|
D----------------------------10------6-------6------10--------8--------------|
A-*88888–66006–66666666*–-8------8----------------8------8—6-----6-----------|
E----------------------------------------------------------------------------|

Bridge: 8x
G----------------------------------------------------------------------------|
D---------------------11—11--------------------------------------------------|
A-88888–8888–9-----9---------------------------------------------------------|
E----------------------------------------------------------------------------|

Chorus:
G-----------------8------------------------------------8--------------------|
D-----10------6-------6------10-------8-------10----6-----6------10---------|
A--8------8---------------8------8—6-----6—8------8-----------8-------8--88-|
E---------------------------------------------------------------------------|

Intro: 3x
G--------------------------------------------------------------------|
D----------------------------------11-----------------11-----11------|
A-88888--66006–66006–88888–8888-9------88888--8888-9------9----------|
E--------------------------------------------------------------------|

Chorus: Inside **’s only play one time through, the rest play twice through.
G----------------------------------------8-----------------------------------|
D----------------------------10------6-------6------10--------8--------------|
A-*88888–66006–66666666*–-8------8----------------8------8—6-----6-----------|
E----------------------------------------------------------------------------|

Bridge: 8x
G----------------------------------------------------------------------------|
D--------------11—---11------------------------------------------------------|
A-88888–8888–9-----9---------------------------------------------------------|
E----------------------------------------------------------------------------|

Outro:
G----------------------------------------------------------------------------|
D----------------------------------------------------------------------------|
A-88888–88--88---------------------------------------------------------------|
E----------------------------------------------------------------------------|
            
Submit corrections

comments powered by Disqus
↑ Back to top | Samhain Bass for Unholy Passions. Lyrics for acoustic guitar and electric guitar. Tablatures and chords are parodies/interpretations of the original songs. You may use it for private study, scholarship, research or language learning purposes only