» » »

Samhain, Trouble Bass tabs (ver.1)

Artists:  A B C D E F G H I J K L M N O P Q R S T U V W X Y Z # 

Trouble Bass tabs (ver.1)

Samhain Tabs
 Rating:
4/5 (4 votes)
Trouble lessons Tabs too difficult? Try these video lessons and learn fast
                Trouble Bass Tabs by Samhain, 
SAMHAIN - Trouble


Intro/Verse
G-------------|--------------|
D-------------|-----1--1--3--|
A—--1—-1--3---|---3--3-------|
E-3--3--------|--------------|

Verse Riff 2
G------------------------|-----------------------|
D------------------------|-----------------------|
A-3-3-3-3-3-3-3-3-3-3-3-3|3-3-3-3-3-3-3-3-3-3-3-3|
E------------------------|-----------------------|

Chorus       Pt.2        Pt.3
G------5-4-3-|------------|--------------|
D-3-3-3------|------5-4-3-|--------------|
A------------|-3-3-3------|------5-4-3---|
E------------|------------|-3-3-3------1-|

Chorus End
G----------------------|----------------------|
D------5-4-3-----5-4-3-|------5-4-3-----------|
A-3-3-3-----3-3-3------|-3-3-3------3-----1-—1|
E----------------------|----------------3—-3--|
            
Submit corrections

comments powered by Disqus
↑ Back to top | Samhain Bass for Trouble. Lyrics for acoustic guitar and electric guitar. Tablatures and chords are parodies/interpretations of the original songs. You may use it for private study, scholarship, research or language learning purposes only