» » »

Samhain, Mother Of Mercy Bass tabs (ver.1)

Artists:  A B C D E F G H I J K L M N O P Q R S T U V W X Y Z # 

Mother Of Mercy Bass tabs (ver.1)

Samhain Tabs
Rating:
0/5 (0 votes)
Mother Of Mercy lessons Tabs too difficult? Try these video lessons and learn fast
                Mother of Mercy

Main Riff
G|----------------------------------|
D|----------------------------------|
A|-------4--------------------------|
E|-6-6-6---4---2XX2XX2XX2XX2XX2XX2--|

Chorus
G|--------------------------------------|
D|--------------------------------------|
A|-------------------44444444--------6--|
E|-66666666-44444444--------------------|

Ending Chorus
G|--------------------------------------|
D|--------------------------------------|
A|----------44444444-----------------6--|
E|-66666666----------44444444-----------|

End
G|-----------------------------|
D|-----------------------------|
A|-------4---------------------|
E|-6-6-6---4---2---------------|

It's a really easy song....Just listen to it

You can leav a coment on my tabs
on my email.
            

comments powered by Disqus
↑ Back to top | Samhain Bass for Mother Of Mercy. Lyrics for acoustic guitar and electric guitar. Tablatures and chords are parodies/interpretations of the original songs. You may use it for private study, scholarship, research or language learning purposes only