» » »

Lords Of The Left Hand Tabs (ver.1)

Artists:  A B C D E F G H I J K L M N O P Q R S T U V W X Y Z # 

Lords Of The Left Hand Tabs (ver.1)

Samhain
Rating:
0/5 (0 votes)

Hard to play? Try these video lessons and learn fast.
                Band: Samhain


Tuning: Normal

Riff 1:
E-------------------
B-------------------
G-------------------
D-9------7----------
A-7---9--5---------9
E-----7--- x's 5 --7

RIff 2:
E-------------------------------7-------------------7------
B----------------------------------------------------------
G---9-7---------------9---------------9-7---------------9--
D-7---------7~------7--------7~-----7---------7~-----------
A--------5~----5~---------5~--------------5~-----5~--------
E----------------------------------------------------------

Riff 3:
E-------------------------
B-------------------------
G-------------------------
D-9------7----------------
A-7---9--5---------9-999-9
E-----7--- x's 3 --7-777-7

Riff 4:
E------------7--------------------7~------------------------
B-----------------------------------------------------------
G---9-7----------------9-7-------------9-7------------------
D-7-----------------7----------------7-----------7~--------7
A--------5~-----5~------------5~-------------5~-----5~--5---
E-----------------------------------------------------------

Riff 5: Solo, Has the two chords played under it.
E----------------------------------------------------------------------------------------------------------------
B----------------------------------------------------------------------------------------------------------------
G----------------------------------------------12-10-9-7-10-9--12-13-14^-13-12~--12-13-14^-----------------------
D-9~-7-5------------------------------11-12-11-12-10-9-7-10-9-------------------------------14-13-12-9-10-9-9-8-9
A--------7-6-5------5-7-9-7--9-11-12-----------------------------------------------------------------------------
E--------------7-5-----------------------------------------------------------------------------------------------

E-----------------------------------------------------------------
B-----------------------------------------------------------------
G---------------------------------------------------12-10-9-7-10-9
D-9-7-9~--7-5---------------------------11-12-11-12-12-10-9-7-10-9
A--------------7-6-5-------------7-9/11---------------------------
E---------------------7-6-5-7-9-----------------------------------

Riff 6:
E-------------7----------------------7----------------7--------7----------------------------
B-------------------------------------------------------------------------------------12^---
G---9-7-----------------9-7----------------9-7----------------------------------------------
D-7-------------------7----------7~------7--------------------------------7--6-7-9-7--------
A--------5~------5~----------5~------------------5~-------5~-------5~---9-5--------5-------9
E-----------------------------------------------------------------------7------------------7
            
Hard to play? Try these video lessons and learn fast. | Correct




comments powered by Disqus
↑ Back to top | Tablatures and chords are parodies/interpretations of the original songs. You may use it for private study, scholarship, research or language learning purposes only