» » »

He Who Can Not Be Named Bass tabs (ver.1)

Artists:  A B C D E F G H I J K L M N O P Q R S T U V W X Y Z # 

He Who Can Not Be Named Bass tabs (ver.1)

Samhain
Rating:
0/5 (0 votes)

Hard to play? Try these video lessons and learn fast.
                Bassist: Eerie Von
Tuning: Standard

Riff A
|-------------|
|----11-------|
|-33----11-33-|
|-------------|  X 4
 

Riff B
|-------------------|
|------1111---------|
|-3333-----1111-3333|
|-------------------|  X 8

Riff C
G--------------------------|
D------------1---1---------|
A-1111111--3--1-3--1------3|
E--------------------------| X 2

Riff A x 4

Riff B x 6

Riff C x 8
            
Hard to play? Try these video lessons and learn fast. | Correct




comments powered by Disqus
↑ Back to top | Tablatures and chords are parodies/interpretations of the original songs. You may use it for private study, scholarship, research or language learning purposes only