» » »

Haloween Ii Tabs (ver.1)

Artists:  A B C D E F G H I J K L M N O P Q R S T U V W X Y Z # 

Haloween Ii Tabs (ver.1)

Samhain
Rating:
0/5 (0 votes)

Tabs too difficult? Try these video lessons and learn fast.
                ----------------------------------------------------------------------------
                             Halloween II - SAMHAIN
----------------------------------------------------------------------------


E|---------------------------------------------|
B|---------------------------------------------|
G|---------------------------------------------|
D|---------------------------------------------| X 7
A|------6---------<6>~~---------6--------<6>~~-|
E|-5-5--------5-5---------5-5--------5-5-------|
pm . .        . .         . .        . .  



E|---------------------------------------------|
B|-9----9-9---10---10-10---9-9-9-10--10-10-10--|
G|-9----9-9---10---10-10---9-9-9-10--10-10-10--|
D|-9----9-9---10---10-10---9-9-9-10--10-10-10--| X 3
A|-7----7-7---8----8--8----7-7-7-8---8--8--8---|
E|---------------------------------------------|


E|---------------------------------------------|
B|-9----9-9---10---10-10-----------------------|
G|-9----9-9---10---10-10-----------------------|
D|-9----9-9---10---10-10-----------------------|
A|-7----7-7---8----8--8----887766554433221~----|
E|---------------------------------------------|
                        pm ...............


E|---------------------------------------------|
B|---------------------------------------------|
G|---------------------------------------------|
D|---------------------------------------------| X 4
A|------6---------<6>~~---------6--------<6>~~-|
E|-5-5--------5-5---------5-5--------5-5-------|
pm . .        . .         . .        . .  



E|---------------------------------------------|
B|-9----9-9---10---10-10---9-9-9-10--10-10-10--|
G|-9----9-9---10---10-10---9-9-9-10--10-10-10--|
D|-9----9-9---10---10-10---9-9-9-10--10-10-10--| X 4
A|-7----7-7---8----8--8----7-7-7-8---8--8--8---|
E|---------------------------------------------|


Chorus:
E|-----------------------------|-------------------------------|
B|-----------------------------|-------------------------------|
G|-----------------------------|-------------------------------|
D|-7-------------------------- |-5-----------------------------|
A|-7-------------------------- |-5-----------------------------|
E|-5-------------------------- |-3-----------------------------|


E|-----------------------------|-------------------------------|
B|-----------------------------|-------------------------------|
G|-----------------------------|-------------------------------|
D|-7---------------------------|-5-5-5--5-5-5--5-5-5-5-5-5-5-5-|
A|-7---------------------------|-5-5-5--5-5-5--5-5-5-5-5-5-5-5-|
E|-5---------------------------|-3-3-3--3-3-3--3-3-3-3-3-3-3-3-|
                              pm . .    . .    . . . . . . . .


E|-----------------------------|-------------------------------|
B|-----------------------------|-------------------------------|
G|-----------------------------|-------------------------------|
D|-7---------------------------|-5-----------------------------|
A|-7---------------------------|-5-----------------------------|
E|-5---------------------------|-3-----------------------------|


E|-----------------------------|-------------------------------|
B|-----------------------------|-------------------------------|
G|-----------------------------|-------------------------------|
D|-7---------------------------|-5-5-5--5-5-5--5-5-5-5-5-5-5-5-|
A|-7---------------------------|-5-5-5--5-5-5--5-5-5-5-5-5-5-5-|
E|-5---------------------------|-3-3-3--3-3-3--3-3-3-3-3-3-3-3-|
                              pm . .    . .    . . . . . . . .


E|-----------------------------|-------------------------------|
B|-----------------------------|-------------------------------|
G|-----------------------------|-------------------------------|
D|-7---------------------------|-5-----------------------------|
A|-7---------------------------|-5-----------------------------|
E|-5---------------------------|-3-----------------------------|


E|-----------------------------|-------------------------------|
B|-----------------------------|-------------------------------|
G|-----------------------------|-------------------------------|
D|-7---------------------------|-5-5-5--5-5-5--5-5-5-5---------|
A|-7---------------------------|-5-5-5--5-5-5--5-5-5-5-5b6br5p3|
E|-5---------------------------|-3-3-3--3-3-3--3-3-3-3---------|
                              pm . .    . .    . . . . 


E|---------------------------------------------|
B|---------------------------------------------|
G|---------------------------------------------|
D|---------------------------------------------| X 6
A|------6---------<6>~~---------6--------<6>~~-|
E|-5-5--------5-5---------5-5--------5-5-------|
pm . .        . .         . .        . .  


Chorus:
E|-----------------------------|-------------------------------|
B|-----------------------------|-------------------------------|
G|-----------------------------|-------------------------------|
D|-7---------------------------|-5-----------------------------|
A|-7---------------------------|-5-----------------------------|
E|-5---------------------------|-3-----------------------------|


E|-----------------------------|-------------------------------|
B|-----------------------------|-------------------------------|
G|-----------------------------|-------------------------------|
D|-7---------------------------|-5-5-5--5-5-5--5-5-5-5-5-5-5-5-|
A|-7---------------------------|-5-5-5--5-5-5--5-5-5-5-5-5-5-5-|
E|-5---------------------------|-3-3-3--3-3-3--3-3-3-3-3-3-3-3-|
                              pm . .    . .    . . . . . . . .


E|-----------------------------|-------------------------------|
B|-----------------------------|-------------------------------|
G|-----------------------------|-------------------------------|
D|-7---------------------------|-5-----------------------------|
A|-7---------------------------|-5-----------------------------|
E|-5---------------------------|-3-----------------------------|


E|-----------------------------|-------------------------------|
B|-----------------------------|-------------------------------|
G|-----------------------------|-------------------------------|
D|-7---------------------------|-5-5-5--5-5-5--5-5-5-5-5-5-5-5-|
A|-7---------------------------|-5-5-5--5-5-5--5-5-5-5-5-5-5-5-|
E|-5---------------------------|-3-3-3--3-3-3--3-3-3-3-3-3-3-3-|
                              pm . .    . .    . . . . . . . .


E|---------------------------------------------|
B|-9----9-9---10---10-10---9-9-9-10--10-10-10--|
G|-9----9-9---10---10-10---9-9-9-10--10-10-10--|
D|-9----9-9---10---10-10---9-9-9-10--10-10-10--| X 3
A|-7----7-7---8----8--8----7-7-7-8---8--8--8---|
E|---------------------------------------------|



E|---------------------------------------------|
B|-9----9-9---10---10-10-10--------------------|
G|-9----9-9---10---10-10-10--------------------|
D|-9----9-9---10---10-10-10--------------------|
A|-7----7-7---8----8--8--8---------------------|
E|---------------------------------------------|

************************************

| /   slide up
| \   slide down
| h   hammer-on
| p   pull-off
| ~   vibrato
| +   harmonic
| x   Mute note
| b   Bend
| pb  Pre-bend
| br  Bend release
| pbr Pre-bend release
| brb Bend release bend

************************************
            
Tabs too difficult? Try these video lessons and learn fast.




comments powered by Disqus
↑ Back to top | Tablatures and chords are parodies/interpretations of the original songs. You may use it for private study, scholarship, research or language learning purposes only