» » »

Samhain, Die For The Demon Tabs (ver.1)

Artists:  A B C D E F G H I J K L M N O P Q R S T U V W X Y Z # 

Die For The Demon Tabs (ver.1)

Samhain Tabs
 Rating:
4/5 (4 votes)
Die For The Demon lessons Tabs too difficult? Try these video lessons and learn fast
                Band: samhain


Tuning: normal

riff 1:  Part A                     Part B
E--------------------------------|------
B--------------------------------|------
G--------------------------------|------
D--------------------------------|-55-77
A-5-3-33-3-4-3-33-3-4-3-33-3-4-3-|-33-55
E-3-1-11-1-2-1-11-1-2-1-11-1-2-1-|------

Riff 1 Part A x's 2 then B

Riff 2:
E-------------------------------
B-------------------------------
G-------------------------------
D-5-3-33-3-4-3-33-3-4-3-33-3-4-3
A-3-1-11-1-2-1-11-1-2-1-11-1-2-1
E-------------------------------

Riff 1 Part A once

Riff 2 

Riff 3:
E--------------------------
B--------------------------
G--------------------------
D-7------77------77------77
A-5------55------55------55
E---0000----0000----0000---
pm  ....    ....    ....

Riff 1 A + B

Riff 1 Part A x's 2 then B

Riff 2

Riff 1 A

Riff 2

Riff 3

Riff 1 A + B

Riff 1 A x's 2 then B

Riff 4:
E---------
B---------
G---------
D----77-99
A-5--55-77
E-3-------  x's 4

Solo:
E-------------------------------------------------15-14-12-14^^^-17^^^^-19^^^^-21^-
B----------------------------------------------------------------------------------
G----------------------------------------------------------------------------------
D----------------14^-15-14^-151415141514~--13-12-----------------------------------
A-12/3--12-14-15-------------------------------------------------------------------
E----------------------------------------------------------------------------------

E-------------------------------------------------------------------------------------------
B---------------17-19-18-16-------------------------17-19-17-15-----------------------------
G-15-17^-15-17^--------------19-18-16-15~--15-17-19--------------19-17-15-151415141514------
D----------------------------------------------------------------------------------------12\
A----------------------------------------------------------------------------------------12\
E-------------------------------------------------------------------------------------------

E-----------------------------------------------------------------------------------------------------
B----------------------------------------------------------------------------------------17^-15-17-15~
G------------------------------------------------------------------14-15-14----14--15-17--------------
D-12~-13-12~--12-14-15-12~-13-12~------------------------12-14-15-----------15------------------------
A----------------------------------------------12-14-15-----------------------------------------------
E-------------------------------------10-12-13--------------------------------------------------------

E----------------------------------------------------------------------------------------21
B---------------------------------------------------------------------------------19-21----
G----13-14^-14-13-11-----13-14^-14-13-11--------------------------------17-19-21-----------
D-12------------------12------------------------------------7/17-19-21---------------------
A---------------------------------------------------7-9-10---------------------------------
E------------------------------------------7-19-10-----------------------------------------

Riff 1 A + B
            
Submit corrections

comments powered by Disqus
↑ Back to top | Samhain Tabs for Die For The Demon. Lyrics for acoustic guitar and electric guitar. Tablatures and chords are parodies/interpretations of the original songs. You may use it for private study, scholarship, research or language learning purposes only