» » »

Diablos '88 Bass tabs (ver.1)

Artists:  A B C D E F G H I J K L M N O P Q R S T U V W X Y Z # 

Diablos '88 Bass tabs (ver.1)

Samhain
Rating:
0/5 (0 votes)

Hard to play? Try these video lessons and learn fast.
                Samhain
bass

Riff 1
G|----------------------9---|-----------------------9---|
D|-7--7-7--10--7-7--7-7---7-|-7--7-7--10--7-7--7-7----7-|
A|--------------------------|---------------------------|
E|--------------------------|---------------------------|

Riff 2
G|--------------------------|---------------------------|
D|----------------------9---|-----------------------9---|
A|-7--7-7--10--7-7--7-7---7-|-7--7-7--10--7-7--7-7----7-|
E|--------------------------|---------------------------|

THATS THE WHOLE THING
            
Hard to play? Try these video lessons and learn fast. | Correct




comments powered by Disqus
↑ Back to top | Tablatures and chords are parodies/interpretations of the original songs. You may use it for private study, scholarship, research or language learning purposes only