» » »

Sambomaster, Tegami Tabs (ver.1)

Artists:  A B C D E F G H I J K L M N O P Q R S T U V W X Y Z # 

Tegami Tabs (ver.1)

Sambomaster Tabs
Rating:
0/5 (0 votes)
Tegami lessons Tabs too difficult? Try these video lessons and learn fast
                -------------------------------------------------------------------------------
-------------------------------------------------------------------------------

Tuning: Standard

Verse
 PLAY 2 TIMES: (NOTES PLAYED IN BETWEEN CHORDS ARE GUIDELINES,IMPROVISE)
|-------8-------------8--8----------------------------------------------------|
|--10-8-8-------------8----8---10------10------8-8h10--8-----6-6-----6h8--6---|
|--9--7-9-------------9------9-9----------9----7---------7---5---5------------|
|--10-9-10---------10-10-------10---10------10-9-----------9-7-----7--------7-|
|--8--7-10------10----10-------8--8------------7-------------5----------------|
|-------8-----8-------8-------------------------------------------------------|

Prelude to chorus
 PLAY 2 TIMES:
|------------------------------------------------8-------8--|
|--10-8-6-6h8--6-------10-8-6---------6-----10-8-8--10-8-8--|
|--9--7-5--------5-----9--7-5-------5---5---9--7-9--9--7-9--|
|--10-9-7------------7-10-9-7-----7-------7-10-9-10-10-9-10-|
|--8--7-5----------5---8--7-5---5-----------8--7-10-8--7-10-|
|------------------------------------------------8-------8--|

Chorus
Strum this awesomely 2 TIMES:       |Play this 2 times:
|--8------------------8-------------|6-----------------------------------|
|--8--10-8-6----------8--10-8-6-----|6-----------------------------------|
|--9--9--7-5----------9--9--7-5-----|7-7-7-7-7-7-7-7-7-7-7-7--7-9--9--9--|
|--10-10-9-7----------10-10-9-7-----|8-8-8-8-8-8-8-8-8-8-8-8--8-10-10-10-|
|--10-8--7-5----------10-8--7-5-----|8-8-8-8-8-8-8-8-8-8-8-8--8-10-10-10-|
|--8------------------8-------------|6-6-6-6-6-6-6-6-6-6-6-6--6-8--8--8--|


Verse
Strum this awesomely 2 TIMES:
|--8------------------8-------------|
|--8--10-8-6----------8--10-8-6-----|
|--9--9--7-5----------9--9--7-5-----|
|--10-10-9-7----------10-10-9-7-----|
|--10-8--7-5----------10-8--7-5-----|
|--8------------------8-------------|

Prelude to chorus
 PLAY 2 TIMES:
|------------------------------------------------8-------8--|
|--10-8-6-6h8--6-------10-8-6---------6-----10-8-8--10-8-8--|
|--9--7-5--------5-----9--7-5-------5---5---9--7-9--9--7-9--|
|--10-9-7------------7-10-9-7-----7-------7-10-9-10-10-9-10-|
|--8--7-5----------5---8--7-5---5-----------8--7-10-8--7-10-|
|------------------------------------------------8-------8--|

Chorus
 Strum this awesomely 2 TIMES:      |Play this 4 times:
|--8------------------8-------------|6-----------------------------------|
|--8--10-8-6----------8--10-8-6-----|6-----------------------------------|
|--9--9--7-5----------9--9--7-5-----|7-7-7-7-7-7-7-7-7-7-7-7--7-9--9--9--|
|--10-10-9-7----------10-10-9-7-----|8-8-8-8-8-8-8-8-8-8-8-8--8-10-10-10-|
|--10-8--7-5----------10-8--7-5-----|8-8-8-8-8-8-8-8-8-8-8-8--8-10-10-10-|
|--8------------------8-------------|6-6-6-6-6-6-6-6-6-6-6-6--6-8--8--8--|

SOLO/CHORUS                         (DO A SOLO!!!!!)
 Strum this awesomely 2 TIMES:
|--8------------------8-------------|
|--8--10-8-6----------8--10-8-6-----|
|--9--9--7-5----------9--9--7-5-----|
|--10-10-9-7----------10-10-9-7-----|
|--10-8--7-5----------10-8--7-5-----|
|--8------------------8-------------|

Solo outro/Chorus intro
 Play this 4 times:
|8-------8-------|
|10-8-8--10-8-8--|
|9--7-9--9--7-9--|
|10-9-10-10-9-10-|
|8--7-10-8--7-10-|
|-----8-------8--|

Chorus
 Strum this awesomely 4 TIMES:      |Play this 3 times:
|--8------------------8-------------|6-----------------------------------|
|--8--10-8-6----------8--10-8-6-----|6-----------------------------------|
|--9--9--7-5----------9--9--7-5-----|7-7-7-7-7-7-7-7-7-7-7-7--7-9--9--9--|
|--10-10-9-7----------10-10-9-7-----|8-8-8-8-8-8-8-8-8-8-8-8--8-10-10-10-|
|--10-8--7-5----------10-8--7-5-----|8-8-8-8-8-8-8-8-8-8-8-8--8-10-10-10-|
|--8------------------8-------------|6-6-6-6-6-6-6-6-6-6-6-6--6-8--8--8--|

END
SLOW IT DOWN!!!
6-----------------------|
6-----------------------|
7-7-7-7-7-7-7-7-7-7-7-7-|
8-8-8-8-8-8-8-8-8-8-8-8-|
8-8-8-8-8-8-8-8-8-8-8-8-|
6-6-6-6-6-6-6-6-6-6-6-6-|

|--6-6---7-7---8-------|
|--6-6---7-7---8-------|
|--7-7---8-8---9-------|      LALALA LALA!!!
|--8-8---9-9---10------|
|--8-8---9-9---10------|
|--6-6---7-7---8-------|


|--8--8--8--|
|--8--8--8--|
|--9--9--9--|
|--10-10-10-|
|--10-10-10-|
|--8--8--8--|


SAMBOMASTER RULES!!! SAMBOMASTER WORLD TOUR NOW!!!


************************************

| /   slide up
| \   slide down
| h   hammer-on
| p   pull-off
| ~   vibrato
| +   harmonic
| x   Mute note
| b   Bend
| pb  Pre-bend
| br  Bend release
| pbr Pre-bend release
| brb Bend release bend

************************************
            
Submit corrections

comments powered by Disqus
↑ Back to top | Sambomaster Tabs for Tegami. Lyrics for acoustic guitar and electric guitar. Tablatures and chords are parodies/interpretations of the original songs. You may use it for private study, scholarship, research or language learning purposes only