» » »

Sambomaster, Subete No Yoru To Subete No Asa Ni Tambourine O Narasu No Da Tabs (ver.1)

Artists:  A B C D E F G H I J K L M N O P Q R S T U V W X Y Z # 

Subete No Yoru To Subete No Asa Ni Tambourine O Narasu No Da Tabs (ver.1)

Sambomaster Tabs
 Rating:
4/5 (4 votes)
Subete No Yoru To Subete No Asa Ni Tambourine O Narasu No Da lessons Tabs too difficult? Try these video lessons and learn fast
1
                -----------------------------------------------------------------------------
Subete no Yoru to Subete no Asa ni Tambourine o Narasu no da (album version) - Sambomaster
-----------------------------------------------------------------------------

Tuning: Normal
Intro part 1:

Play this 3x
e|-2-h3p2---2-2-----2------2-------------------------------------------------|
B|-3------3----3----3-3----3-3-----------------------------------------------|
G|-2------2----2---0---0--0---0----------------------------------------------|
D|-0---------0---------------------------------------------------------------|
A|----------------2------0---------------------------------------------------|
E|---------------------------------------------------------------------------|

Intro part 2:
Play this 1x
e|-2-h3p2---2-2--------------------------------------------------------------|
B|-3------3----3-------------------------------------------------------------|
G|-2------2----2-------------------------------------------------------------|
D|-----------0---2-------0---------------------------------------------------|
A|---------------------------------------------------------------------------|
E|---------------------------------------------------------------------------|

verse:
This is played for the chorus as well.
I'm only giving the chords because i'm lazy... =.=,
Play everything in a funky way and play this 2x (Listen to the song)
e|-7-------3-/-4-------------------------------------------------------------|
B|-7-------5-/-6-------------------------------------------------------------|
G|-7-------4-/-5-------------------------------------------------------------|
D|-7-------5-/-6-------------------------------------------------------------|
A|-5-------3-/-4-------------------------------------------------------------|
E|---------------------------------------------------------------------------|

Intro into chorus part 1:
              Together you play this 2x
Play this 3x                              then play this 1x
e|-2-x-3-x-3--x-3-3-3-3-------------------2-3-3-3-3-3-3-x-x------------------|
B|-3-x-5-x-5--x-5-5-5-5-------------------3-5-5-5-5-5-5-x-x------------------|
G|-2-x-4-x-4--x-4-4-4-4-------------------2-4-4-4-4-4-4-x-x------------------|
D|-4-x-5-x-5--x-5-5-5-5-------------------4-5-5-5-5-5-5-x-x------------------|
A|-2-x-3-x-3--x-3-3-3-3-------------------2-3-3-3-3-3-3-x-x------------------|
E|---x-----------------------------------------------------------------------|

Intro into chorus part 2:
Play this slowly and after you hit the chord just play some notes from that chord, then 
be doing it right. And listen to the song!
e|-2---3---2---3-4--x-x-x-x-------------------------------------------------|
B|-3---5---3---5-6--x-x-x-x-------------------------------------------------|
G|-2---4---2---4-5--x-x-x-x-------------------------------------------------|
D|-4---5---4---5-6--x-x-x-x-------------------------------------------------|
A|-2---3---2---3-4--x-x-x-x-------------------------------------------------|
E|------------------x-x-x-x-------------------------------------------------|

Chorus:
This is played the same way as the verse, so you'll just have to listen to the song!
e|-7-------3-/-4-------------------------------------------------------------|
B|-7-------5-/-6-------------------------------------------------------------|
G|-7-------4-/-5-------------------------------------------------------------|
D|-7-------5-/-6-------------------------------------------------------------|
A|-5-------3-/-4-------------------------------------------------------------|
E|---------------------------------------------------------------------------|

Bridge:
SOOOO sorry, but i didn't feel like tabbing the bridge!
But it's not that hard, so just LISTEN TO THE SONG.
e|---------------------------------------------------------------------------|
B|---------------------------------------------------------------------------|
G|---------------------------------------------------------------------------|
D|---------------------------------------------------------------------------|
A|---------------------------------------------------------------------------|
E|---------------------------------------------------------------------------|

Solo:
There ain't any solo in the song sadly!
e|---------------------------------------------------------------------------|
B|---------------------------------------------------------------------------|
G|---------------------------------------------------------------------------|
D|---------------------------------------------------------------------------|
A|---------------------------------------------------------------------------|
E|---------------------------------------------------------------------------|


Well that's basically it, i hope this helps!

| /  slide up
| \  slide down
| h  hammer-on
| p  pull-off
| ~  vibrato
| +  harmonic
| x  Mute note
===============================================================================
            
Submit corrections

comments powered by Disqus
↑ Back to top | Sambomaster Tabs for Subete No Yoru To Subete No Asa Ni Tambourine O Narasu No Da. Lyrics for acoustic guitar and electric guitar. 1 Tablatures and chords are parodies/interpretations of the original songs. You may use it for private study, scholarship, research or language learning purposes only