» » »

Sambomaster, Sono Nukimori Ni You Ga Aru Bass tabs (ver.1)

Artists:  A B C D E F G H I J K L M N O P Q R S T U V W X Y Z # 

Sono Nukimori Ni You Ga Aru Bass tabs (ver.1)

Sambomaster Tabs
 Rating:
4/5 (4 votes)
Sono Nukimori Ni You Ga Aru lessons Tabs too difficult? Try these video lessons and learn fast
                -------------------------------------------------------------------------------
-------------------------------------------------------------------------------


Tuning: EADG

Part One
G|---------------------------------------------------------------------------|
D|-11---9---11---9-----------------------------------------------------------|
A|----9---7----9---7----9---7---9---7----------------------------------------|
E|--------------------9---7---9---7------------------------------------------|

Part Two
G|---------------------------------------------------------------------------|
D|---11-9---------------------9-7--------------------------------------------|
A|--------11----9----9------------9----7---7---------------------------------|
E|-9---------12---12---12-9-7-------10---9---9-7-----------------------------|
 
Part Three
G|---------------------------------------------------------------------------|
D|---------------------------------------------------------------------------|
A|---9---7---9---7-\---------------------------------------------------------|
E|-9---7---9---7-------------------------------------------------------------|

Part Four
G|---------------------------------------------------------------------------|
D|---------------------------------------------------------------------------|
A|---9----7----9-------------------------------------------------------------|
E|-9---77---99---777---------------------------------------------------------|

Part Five
G|---------------------------------------------------------------------------|
D|-11---9--------------------------------------------------------------------|
A|----9---7------------------------------------------------------------------|
E|---------------------------------------------------------------------------|

Part Six
G|---------------------------------------------------------------------------|
D|---------------------------------------------------------------------------|
A|---------------------------------------------------------------------------|
E|-9p7-----------------------------------------------------------------------|

Order 

Part 1 1X 
Part 2 2X 
Part 3 1X 
Part 2 2X
Part 4 1X
Part 2 4X
Part 4 1X
Part 2 3.5X
Part 5 1X
Part 2 4X
Part 3 1X (Rapidly picking, not quarter notes)
Part 6 32X
Part 4 1X
Part 2 6.5X
Fret 7 on A string until ZOT note which is fret 7 on A string

| /  slide up
| \  slide down
| h  hammer-on
| p  pull-off
| ~  vibrato
| +  harmonic
| x  Mute note
===============================================================================
            
Submit corrections

comments powered by Disqus
↑ Back to top | Sambomaster Bass for Sono Nukimori Ni You Ga Aru. Lyrics for acoustic guitar and electric guitar. Tablatures and chords are parodies/interpretations of the original songs. You may use it for private study, scholarship, research or language learning purposes only