» » »

Slow Na Disco Ni Shite Kure Tabs (ver.1)

Artists:  A B C D E F G H I J K L M N O P Q R S T U V W X Y Z # 

Slow Na Disco Ni Shite Kure Tabs (ver.1)

Sambomaster
Rating:
0/5 (0 votes)

Hard to play? Try these video lessons and learn fast.
                -------------------------------------------------------------------------------
-------------------------------------------------------------------------------

Tuning: Standard

*note*
I found it hard with this song to actually hear the chords at some parts, so I might be 
with some thingymajiggas. :/

Intro
                                           | Play chord 14 times or so
|--5--x-7----5--x-7--7-----2--3--5--4--5-----|
|--5--x-7----5--x-7--7-----2--3--7--5--7-----|
|--6--x-7----6--x-7--7-----2--4--7--4--7---|4|
|--7--x-9----7--x-9--9-----4--5--7--6--7---|4|
|--7--x-9----7--x-9--9-----4--5--5--4--5---|2|
|--5--x-7----5--x-7--7-----2--3--------------|

Verse
play 2 times:
|--5-5-5-5-5----2-2-2-2-2-----2---2-5----5--5----5-5|
|--5-5-5-5-5----3-3-3-3-3-----3---3-7----7--5----5-5|
|--6-6-6-6-6----4-4-4-4-4-----4---4-7----7--6----6-6|
|--7-7-7-7-7----4-4-4-4-4-----4---4-7----7--7----7-7|
|--7-7-7-7-7----2-2-2-2-2-----2---2-5----5--7----7-7|
|--5-5-5-5-5--------------------------------5----5-5|

Prelude to chorus
Strum in a cool manner:                              |Play chords... a number..of times...
|--2----4----5----5----2----4-4--x-5-----2--3--5--4--|5----7|
|--3----5----7----5----3----5-5--x-7-----2--3--7--5--|7----9|
|--4----4----7----6----4----4-4--x-7-----2--4--7--4--|6----9|
|--4----6----7----7----4----6-6--x-7-----4--5--7--6--|7----9|
|--2----4----5----7----2----4-4--x-5-----4--5--5--4--|5----7|
|-----------------5--------------x-------2--3--------|------|

Chorus
|Play 2 times:                        |                              | Play chord 14 times or so
|--5---4---2-0--4-2---5---5-5-5--3----|-2--0-----3--5-------4-----4--|5--|
|--7---5---3-2--5-3---7---5-5-5--3----|-3--2-----3--7----7--5--7--5--|7--|
|--7---4---4-2--4-4---7---6-6-6--4----|-4--2-----4--7----7--4--6--4--|7--|
|--7---6---4-2--6-4---7---7-7-7--5----|-4--2--6--5--7----7--6--7--6--|7--|
|--5---4---2-0--4-2---5---7-7-7--5----|-2--0--6--5--5----5--4--5--4--|5--|
|-------------------------5-5-5--3----|-------4--3-------------------|---|

Verse
play 1 time:
|--5-5-5-5-5----2-2-2-2-2-----2---2-5----5--5----5-5|
|--5-5-5-5-5----3-3-3-3-3-----3---3-7----7--5----5-5|
|--6-6-6-6-6----4-4-4-4-4-----4---4-7----7--6----6-6|
|--7-7-7-7-7----4-4-4-4-4-----4---4-7----7--7----7-7|
|--7-7-7-7-7----2-2-2-2-2-----2---2-5----5--7----7-7|
|--5-5-5-5-5--------------------------------5----5-5|


Prelude to chorus
Strum in a cool manner:                              |Play chords... a number..of times...
|--2----4----5----5----2----4-4--x-5-----2--3--5--4--|5----7|
|--3----5----7----5----3----5-5--x-7-----2--3--7--5--|7----9|
|--4----4----7----6----4----4-4--x-7-----2--4--7--4--|6----9|
|--4----6----7----7----4----6-6--x-7-----4--5--7--6--|7----9|
|--2----4----5----7----2----4-4--x-5-----4--5--5--4--|5----7|
|-----------------5--------------x-------2--3--------|------|

Chorus
|Play 2 times:                        |Play 3 times:    |
|--5---4---2-0--4-2---5---5-5-5--3----|-2--0-----3--5---|
|--7---5---3-2--5-3---7---5-5-5--3----|-3--2-----3--7---|
|--7---4---4-2--4-4---7---6-6-6--4----|-4--2-----4--7---|
|--7---6---4-2--6-4---7---7-7-7--5----|-4--2--6--5--7---|
|--5---4---2-0--4-2---5---7-7-7--5----|-2--0--6--5--5---|
|-------------------------5-5-5--3----|-------4--3------|

Bridge
Play 4 times:
|--5--x-7--             --5--x-7--7---|
|--5--x-7--    BASS     --5--x-7--7---|
|--6--x-7--             --6--x-7--7---|
|--7--x-9--             --7--x-9--9---|
|--7--x-9--             --7--x-9--9---|
|--5--x-7--             --5--x-7--7---|

END
               | Let this last chord ring
|--2--5---5----|5|
|--3--7---7----|5|
|--4--6---7----|6|
|--4--7---7----|7|
|--2--5---5----|7|
|--------------|5|


SAMBOMASTER RULES!!! SAMBOMASTER WORLD TOUR NOW!!!

BUY THEIR NEW ALBUM ''KIMI NO TAMENI TSUYOKU NARITAI''!!!!

LISTEN TO ALL THEIR SONGS!!!


SAMBOMASTERRRRRRRRRRRRRRRRRRRRRR!!!!!!!!!!!!!!!!!!!!!!!!!!!!!!!!!!!!!


************************************

| /   slide up
| \   slide down
| h   hammer-on
| p   pull-off
| ~   vibrato
| +   harmonic
| x   Mute note
| b   Bend
| pb  Pre-bend
| br  Bend release
| pbr Pre-bend release
| brb Bend release bend

************************************
            
Hard to play? Try these video lessons and learn fast. | Correct




comments powered by Disqus
↑ Back to top | Tablatures and chords are parodies/interpretations of the original songs. You may use it for private study, scholarship, research or language learning purposes only