» » »

Sambomaster, Seishun Kyousuokyouku Tabs (ver.1)

Artists:  A B C D E F G H I J K L M N O P Q R S T U V W X Y Z # 

Seishun Kyousuokyouku Tabs (ver.1)

Sambomaster Tabs
 Rating:
3.4/5 (9 votes)
Seishun Kyousuokyouku lessons Tabs too difficult? Try these video lessons and learn fast
1
                Seishun Kyousuokyouku (5º Op. De Naruto)

Intro:

       Gm                  C                 Gm                   C
e|-----5-----5--------|----3-----8-----||-----5-----5--------|----3--------|
B|-----6--------6-----|----5-------5---||-----6--------6-----|----5--------|
G|-----7-----------7--|----5---------5-||-----7-----------7--|----5--------|
D|-----7--------------|----------------||-----7--------------|-------------|
A|--------------------|----------------||--------------------|-------------|
E|--------------------|----------------||--------------------|-------------|

Fig. 1
          Gm                             C
e|-----5---5---5---5---5---|---3---3---3---3---3-----|
B|-----6—--6---6---6---6---|---5---5---5---5---5-----|
G|-----7—--7---7---7---7---|---5---5---5---5---5-----|   x4
D|-------------------------|-------------------------|
A|-------------------------|-------------------------|
E|-------------------------|-------------------------|


Verso 1 & 2
Bm                                       D
Hikarabita kotoba o tsunaide
                               Gmaj7                               Bb/F       C
Sore demo bokura SHINPURU na omoi o tsutaetai dake na no
Bm                                                  D
Fuki nukeru kusunda ano hi no kaze wa
                            Gmaj7
Kinou no haikyo ni uchi sutete
                    Bb/F       C                         G
Kimi to warau ima o ikiru no da YEAH!

With Fig. 2
              G                                       G
Sore demo ano dekigoto ga kimi o kurushimeru daro?
Bb/F              C
Dakara koso SAYONARA nanda


Fig. 2
     G        G        G               Bb/F         C
e|---2---|---2---|---2---|---8------||--1-------|---0------|
B|---3---|---3---|---3---|-------5--||--3-------|---1------|
G|---4---|---4---|---4---|----------||--3-------|---0------|
D|-------|-------|-------|----------||--3-------|---2------|
A|-------|-------|-------|----------||--x-------|---3------|
E|-------|-------|-------|----------||--1-------|---3------|


Chorus
D                                                                  F#m
Kono mama nani mo nokorazu ni anata to wakachi au dake
                Gmaj7                           Bb/F     C
Yagate bokura wa sore ga subete da to ki ga tsuite
 D                                                               F#m
Kanashimi wa hoho o tsutatte namida no kawa ni naru dake
                 Gmaj7                           Bb/F     C
Yureru omoi wa tsuyoi uzu ni natte toke au no yo Baby!

Repeat

Iradachi to ka sukoshi gurai no kodoku da to ka wa
Ittai sore ga bokura ni totte nan datten daro?
Ima wa DORAMA no naka ja nain da ze
"Nee, doudai?"
Sono koe ni bokura furi kaette mo dare mo inai daro?
Dakara koso bokura takara ka ni sakebu no da YEAH!

Sore demo bokura no koe wa doko ni mo todokanai daro?
Dakara koso SAYONARA nanda

Sosh*te mata toki wa nagarete anata to wakachi au dake
Yagate bokura wa sore ga subete da to ki ga tsuite
Kanashimi wa hoho o tsutatte hitosuji no uta ni naru dake
Yureru omoi wa tsuyoi uzu ni natte toke au no yo

SOLO

(Spoken)
Fuki nukeru kusunda ano hi no kaze wa
Kinou no haikyo ni uchi sutete Oh Yeah

Kono mama nani mo nokorazu ni anata to wakachi au dake
Sosh*te anata wa ima ga subete da to ki ga tsuite
Kanashimi wa hoho o tsutatte namida no kawa ni naru dake
Sosh*te bokura wa awai umi ni natte toke au yo


With Intro

(Spoken)
Yagate bokura wa sore ga subete da to ki ga tsuite
Yagate bokura wa kanashimi ga hoho o tsutau koto o oboete
Yagate bokura wa yagate bokura wa
Anata ga ta to toke au wake desu yo
Toke au wake desu


Ok ahí esta lo que puede sacar, el solo no lo saque por que no pude, ya es demasiado
mi. Esta canción es de mis favoritas en Naruto, si la escuchan bien van a ver que si suena,
es lo mejor, pero de algo a nada si quieren saber más de la banda aquí les dejo un link, 
que creo que así se llaman y si no corríjanme, aquí les dejo  los acordes. La canción, 
con esta jajaja.....

Gmaj7                               Gmaj7
e|---2---|                          e|---2---|
B|---0---|                          B|---0---|
G|---0---|   o también:             G|---0---|
D|---0---|                          D|---0---|
A|---2---|                          A|---5---|
E|---3---|                          E|---3---|

Bb/F
e|---x---|
B|---3---|
G|---3---|
D|---3---|
A|---x---|
E|---1---|
            
Submit corrections

comments powered by Disqus
↑ Back to top | Sambomaster Tabs for Seishun Kyousuokyouku. Lyrics for acoustic guitar and electric guitar. 1 Tablatures and chords are parodies/interpretations of the original songs. You may use it for private study, scholarship, research or language learning purposes only