» » »

Sambomaster, Seishun Kyosokyoku Chords (ver.1)

Artists:  A B C D E F G H I J K L M N O P Q R S T U V W X Y Z # 

Seishun Kyosokyoku Chords (ver.1)

Sambomaster Tabs
 Rating:
4.6/5 (9 votes)
Seishun Kyosokyoku lessons Tabs too difficult? Try these video lessons and learn fast
1
                Sambomaster - Seishun Kyosokyoku

I've been looking online for a tab or list of chords to play this damn song... and I 
find a good one.  So here's my take.  I didn't find the fills, but it should be pretty easy 
figure out with the chords.

Intro

      Gmaj7                  C
e|----------------------|----8---8-----------|
B|----10---10-----------|----8-----8---------|
G|----10------10--------|----9-------9-------|
D|-----8---------8-8----|---10---------10----|
A|----10-------------10-|---10------------10-|
E|----------------------|----8---------------|

      Gmaj7                  C
e|----------------------|----8-------|
B|----10---10-----------|----8-------|
G|----10------10--------|----9-------|
D|-----8---------8-8----|---10-------|
A|----10-------------10-|---10-------|
E|----------------------|----8-------|

"Let's get a cup of Water!"
      Gmaj7                                   C
e|-------------------------------------||------------------8----8---8--8--8-----|
B|----10------10---10---10--10---10----||------------------8----8---8--8--8-----|
G|----10------10---10---10--10---10----||------------------9----9---9--9--9-----|
D|-----8-------8----8----8---8----8----||----10-----------10---10--10-10-10-----|
A|----10------10---10---10--10---10----||----10-----------10---10--10-10-10-----|
E|-------------------------------------||-----8-------8----8----8---8--8--8-----|

**Play 2 more times**

      Gmaj7                                   C
e|-------------------------------------||-----8---x--x---8---x--x---8--x--x----8|
B|----10------10---10---10--10---10----||-----8---x--x---8---x--x---8--x--x----8|
G|----10------10---10---10--10---10----||-----9---x--x---9---x--x---9--x--x----9|
D|-----8-------8----8----8---8----8----||----10---x--x--10---x--x--10--x--x---10|
A|----10------10---10---10--10---10----||----10---x--x--10---x--x--10--x--x---10|
E|-------------------------------------||-----8---x--x---8---x--x---8--x--x----8|

Verse 1 (You figure out the strum, I got lazy)

   "Hikarabita..."
     Bb
e|---6------|
B|---6------|
G|---7------|
D|---8------|
A|---8------|
E|---6------|

   "tsunaide..."
     D
e|---10-----|
B|---10-----|
G|---11-----|
D|---12-----|
A|---12-----|
E|---10-----|

    "SHINPURU..."
     Gmaj7
e|----------|
B|---12-----|
G|---11-----|
D|---12-----|
A|---10-----|
E|----------|

     "Omoi wo tstuaetai..."
     Bb
e|---6------|
B|---6------|
G|---7------|
D|---8------|
A|---8------|
E|---6------|

     "Dake na no"
     C
e|---8------|
B|---8------|
G|---9------|
D|--10------|
A|--10------|
E|---8------|


   Bb                                 D
Fuki nukeru kusunda ano hi no kaze wa
                            Gmaj7
Kinou no haikyo ni uchi sutete
                    Bb       C            G
Kimi to warau ima o ikiru no da YEAH!


Prechorus

    "Sore demo..."
     Gmaj7
e|----------|
B|---12-----|
G|---11-----|
D|---12-----|
A|---10-----|
E|----------|

    "Dakara..."
     Bb
e|---6------|
B|---6------|
G|---7------|
D|---8------|
A|---8------|
E|---6------|

    "Sayaonara..."
     C
e|---8------|
B|---8------|
G|---9------|
D|--10------|
A|--10------|
E|---8------|


Chorus
    "Kono mama..."
     D
e|---10-----|
B|---10-----|
G|---11-----|
D|---12-----|
A|---12-----|
E|---10-----|

    "Wakachi..."
     F#m
e|----9-----|
B|---10-----|
G|---11-----|
D|---11-----|
A|----9-----|
E|----------|

    "Bokura wa..."
     Gmaj7
e|---10-----|
B|---12-----|
G|---11-----|
D|---12-----|
A|---10-----|
E|----------|

    "Subete da to..."
     Bb
e|---6------|
B|---6------|
G|---7------|
D|---8------|
A|---8------|
E|---6------|

    "Ki ga Tsuite..."
     C
e|---8------|
B|---8------|
G|---9------|
D|--10------|
A|--10------|
E|---8------|

    D                                    F#m
Kanashimi wa hoho o tsutatte namida no kawa ni naru dake
       Gmaj7                 Bb     C           Bb   C
Yureru omoi wa tsuyoi uzu ni natte tokeau no yo Baby!


Verse 2

         Bb                                  D
Iradachi to ka sukoshi gurai no kodoku da to ka wa, YEAH!
                              Gmaj7
Ittai sore ga bokura ni totte nan datten daro?
       Bb                C
Ima wa DORAMA no naka ja nain da ze
      Bb
"Nee, doudai?"
            D                     Gmaj7
Sono koe ni bokura furi kaette mo dare mo inai daro?
                   Bb           C
Dakara koso bokura takara ka ni sakebu no da, YEAH!


Pre-chorus

Gmaj7
Sore demo bokura no koe wa doko ni mo todokanai daro?
            Bb     C
Dakara koso SAYONARA nanda


Chorus

             D                         F#m
Sosh*te mata toki wa nagarete anata to wakachi au dake
        Gmaj7                   Bb          C
Yagate bokura wa sore ga subete da to ki ga tsuite
             D                         F#m
Kanashimi wa hoho o tsutatte hitosuji no uta ni naru dake
        Gmaj7                   Bb    C     Bb     C
Yureru omoi wa tsuyoi uzu ni natte tokeau no yo, TOKEAU NO YO!!!


Solo (Sorry, I haven't tabbed it out, yet)

     D     F#m    Gmaj7    Bb    C
     D     F#m    Gmaj7    Bb    C
     Gmaj7

Chorus

          D                              F#m
Kono mama nani mo nokorazu ni anata to wakachi au dake
       Gmaj7                    Bb          C
Yagate bokura wa sore ga subete da to ki ga tsuite
             D                         F#m
Kanashimi wa hoho o tsutatte namida no kawa ni naru dake
       Gmaj7                 Bb     C        Bb   C       Bb     C
Yureru omoi wa tsuyoi uzu ni natte tokeau no yo, TOKEAU NO YO!  Tokeauno yo!


Outro

(Intro played over spoken lyrics)
Gmaj7                 C
                             Yagate
Gmaj7
bokura wa sore ga subete da to ki ga tsuite
C                                        Gmaj7
Yagate bokura wa kanashimi ga hoho o tsutau koto o oboete
            C
Yagate bokura wa yagate bokura wa
Gmaj7                       C
Anata ga ta to toke au wake desu yo
C       C#      D
Tokeau wake desu, Oh Yeah!
            
Submit corrections

comments powered by Disqus
↑ Back to top | Sambomaster Chords for Seishun Kyosokyoku. Lyrics for acoustic guitar and electric guitar. 1 Tablatures and chords are parodies/interpretations of the original songs. You may use it for private study, scholarship, research or language learning purposes only