» » »

Oh Baby Tabs (ver.1)

Artists:  A B C D E F G H I J K L M N O P Q R S T U V W X Y Z # 

Oh Baby Tabs (ver.1)

Sambomaster
Rating:
0/5 (0 votes)

Hard to play? Try these video lessons and learn fast.
                -------------------------------------------------------------------------------
-------------------------------------------------------------------------------

Tuning: Standard

Intro
Play this 2 times:                                  Then play this:
|--8----8------------------------------------12-10|------12-10---
|--8------8----------10------10-10-----------10---|------10----10
|--9--------9------9----9----9-----9---------10---|------10------
|--10-----------10--------10-10------10---10-0----|---10-0-------
|--10---------9--------------8----------8---------|-8------------
|--8--8-------------------------------------------|--------------

 Strum awesomely 3 times                         |Play this chord 14 times:
|--8--8------------------12-10-|---8--8----------|6
|--8--8----10-10---8-8---10----|---8--8----8-8---|6
|--9--9----9--9----7-7---10----|---9--9----8-8---|7
|--9--10---10-10---8-8---0-----|---10-10---8-8---|8
|--10-10---9--9----6-6---------|---10-10---6-6---|8
|--8--8------------------------|---8--8----------|6

Verse                               | Play this chord 14 times:
|--8-------------------8------------|--
|--8----8---8---10-----8----8---8---|10
|--9----7---7---9------9----7---7---|9-
|--10---8---8---10-----10---8---8---|10
|--10---6---6---8------10---6---6---|8-
|--8-------------------8------------|--

Prelude to chorus                                                    |Play chord 14 times?
|---------------------8------------------8------------------8--------|6
|--8----8---8---10----8----8---8---10----8----8---8---10----8----8---|6
|--9----7---7---9-----9----7---7---9-----9----7---7---9-----9----7---|7
|--10---8---9---10----10---8---9---10----10---8---9---10----10---8---|8
|--10---6---7---8-----10---6---7---8-----10---6---7---8-----10---6---|8
|--8------------------8------------------8------------------8--------|6

Chorus
Strum awesomely 3 times/PLAY CHORDS A BIT LONGER |Play this chord 14 times:
|--8--8------------------12-10-|---8--8----------|6
|--8--8----10-10---8-8---10----|---8--8----8-8---|6
|--9--9----9--9----7-7---10----|---9--9----8-8---|7
|--9--10---10-10---8-8---0-----|---10-10---8-8---|8
|--10-10---9--9----6-6---------|---10-10---6-6---|8
|--8--8------------------------|---8--8----------|6

Verse                               | Play this chord 14 times?:
|--8-------------------8------------|--
|--8----8---8---10-----8----8---8---|10
|--9----7---7---9------9----7---7---|9-
|--10---8---8---10-----10---8---8---|10
|--10---6---6---8------10---6---6---|8-
|--8-------------------8------------|--

SOLO/PRELUDE TO CHORUS                                              
|---------------------8------------------8------------------8--------
|--8----8---8---10----8----8---8---10----8----8---8---10----8----8---
|--9----7---7---9-----9----7---7---9-----9----7---7---9-----9----7---
|--10---8---9---10----10---8---9---10----10---8---9---10----10---8---
|--10---6---7---8-----10---6---7---8-----10---6---7---8-----10---6---
|--8------------------8------------------8------------------8--------
                                                                     |Play chord 14 times?:
|---------------------8------------------8------------------8--------|6
|--8----8---8---10----8----8---8---10----8----8---8---10----8----8---|6
|--9----7---7---9-----9----7---7---9-----9----7---7---9-----9----7---|7
|--10---8---9---10----10---8---9---10----10---8---9---10----10---8---|8
|--10---6---7---8-----10---6---7---8-----10---6---7---8-----10---6---|8
|--8------------------8------------------8------------------8--------|6

Chorus
Strum awesomely 3 times/PLAY CHORDS A BIT LONGER |Play this chord 14 times:
|--8--8------------------12-10-|---8--8----------|6
|--8--8----10-10---8-8---10----|---8--8----8-8---|6
|--9--9----9--9----7-7---10----|---9--9----8-8---|7
|--9--10---10-10---8-8---0-----|---10-10---8-8---|8
|--10-10---9--9----6-6---------|---10-10---6-6---|8
|--8--8------------------------|---8--8----------|6

END                                                           |Play chord... an amount of times:..
|-------------------------------------------------------------|-
|-------------------------------------------------------------|-
|-------------------------------------------------------------|-
|---------------9-9-9-9-----------10-10-10-10-----------9-9---|-
|--10-10-10-10--7-7-7-7--8-8-8-8--8--8--8--8-----10-10--7-7---|8
|--8--8--8--8------------6-6-6-6-----------------8--8---------|6

|----------3
|--------5-5
|------4---4
|----5-----5
|--3-------3
|-----------


SAMBOMASTER RULES!!! SAMBOMASTER WORLD TOUR NOW!!!


************************************

| /   slide up
| \   slide down
| h   hammer-on
| p   pull-off
| ~   vibrato
| +   harmonic
| x   Mute note
| b   Bend
| pb  Pre-bend
| br  Bend release
| pbr Pre-bend release
| brb Bend release bend

************************************
            
Hard to play? Try these video lessons and learn fast. | Correct




comments powered by Disqus
↑ Back to top | Tablatures and chords are parodies/interpretations of the original songs. You may use it for private study, scholarship, research or language learning purposes only