» » »

Sam And Dave, Said I Wasnt Gonna Tell Nobody Bass tabs (ver.1)

Artists:  A B C D E F G H I J K L M N O P Q R S T U V W X Y Z # 

Said I Wasnt Gonna Tell Nobody Bass tabs (ver.1)

Sam And Dave Tabs
Rating:
5/5 (1 vote)
Said I Wasnt Gonna Tell Nobody lessons Tabs too difficult? Try these video lessons and learn fast
                Bass performed by Donald "Duck" Dunn


Intro:

G----------------------------------------------------|
D--77----77----77----77------------------------------|
A----------------------------------------------------|
E-----55----55----55----55---------------------------|


Verse: 

G----------------------------------------------------|
D--77----77----77----77----77----77----77----77------|
A----------------------------------------------------|
E-----55----55----55----55----55----55----55----55---|


G--77----77----77----77----55----55----77------------|
D----------------------------------------------------|
A-----55----55----55----55----33----33----55-7-7-7-7-|
E----------------------------------------------------|


Chorus:

G---------------------------------------------------------|
D--77----------------77-----------------77----------------|
A-----3-33-5-55-7-77----3-33-5-55-3-33-----3-33-5-55-7-77-|
E---------------------------------------------------------|


Post Chorus:

G------9--------7----|-------------------------------|
D--7-9---9--7-9---9--| repeat --then --7-7-7---------|
A--------------------| 4 times --------------10-7----|
E--------------------|----------------------------8--|

VERSE
CHORUS
POST CHORUS

G---------------------------------------------------|
D---------------------------------------------------|
A--3-3-3-3--0-0-0-0--3-3-3-3--0-0-0-0--0-0-0-0------|
E---------------------------------------------------|


CHORUS TO FADE

every second outro chorus is A G D C






outro chorus:

A C D E
A G D C

repeat until fade
            

comments powered by Disqus
↑ Back to top | Sam And Dave Bass for Said I Wasnt Gonna Tell Nobody. Lyrics for acoustic guitar and electric guitar. Tablatures and chords are parodies/interpretations of the original songs. You may use it for private study, scholarship, research or language learning purposes only