» » »

Salvador, Shine Bass tabs (ver.1)

Artists:  A B C D E F G H I J K L M N O P Q R S T U V W X Y Z # 

Shine Bass tabs (ver.1)

Salvador Tabs
 Rating:
4/5 (4 votes)
Shine lessons Tabs too difficult? Try these video lessons and learn fast
1
                VERSE
G------------------------------------------------------------------|
D-------------------5/7-5~-----------------------------------------|
A---5~---5-X-5-------------------------2~---2-X-2------------------|
E----------------------------3-X-3----------------------5---5-X-5--|x2

G---------------------------------------------------------------------------|
D-------------------5/7-5~--------------------------------------------------|
A---5~---5-X-5---------------------2h5-5-2-2--------------------------------|
E----------------------------3-X-3-------------------5~---5-5-5-5-5-5//\\\\-|

CHORUS
G-----------------------------------------------------------|
D-----------------------------------------------------------|
A------------------------------5---5-X-5--------------------|
E---3---3-X-3---0~---0-X-0----------------0-5~---5-X-5//\\--|

G--------------------------------------------------------------------|
D--------------------------------------------------------------------|
A----------------------------2h5---5-X-5-----------------------------|
E---3---3-X-3-2-0---0-X-0------------------0h5---5-5---7---8---//13~-|

VERSE
G------------------------------------------------------------------------|
D--------------5-7---------------------------------------7-5-4-5-4-------|
A----5---5-X-5-----------------------2---2-X-2---------------------7-5---|
E-\\---------------3---3-X-3---3-5-------------5---5-X-5-----------------|

G-----------------------------------------------------------------|
D--------------5/7-5--------------------------------7-5-4-5-4-----|
A---5---5-X-5-----------------2h5-5-2-2-----------------------7-5-|
E-------------------3--3-X-3-------------5---5-X-5----------------|

CHORUS
G-----------------------------------------------------------------------------------|
D-----------------------------------------------------------------------------------|
A---------------------------0-2-5---5-X-5-------------------------------------------|
E-3---3-X-3---3-2-0---0-X-0---------------2-3-5---5-X-5/\--|x2--5-5-7-7-8-8---8-X-8-|

BRIDGE
G--------------------------------------------------------------------------|
D--------------------------------------------------------------------------|
A-5-5-5-5-5-5-5-5----------------------------------------------3-3-3-3-3-3-|
E----------------0-0-0-0-0-0-0-0-2-2-2-2-2-2-2-2-3-3-3-3-3-3-3-3-----------|

G-------------------------------|
D-------------------------------|
A-------------------5~~~--------|
E-3~~~---0~~~-------------5~~~--|X2

CHORUS
G--------------------------------------------------------------|
D-----/7-5-4-5-4-----------------------------------------------|
A-----------------7-7---7-------0-2-5-5--5-X-5-----------------|
E-3-3---------------------0-X-0---------------2-3-5---5-X-5----|

G----------------------------------------------------------|
D-----/7-5-4-5-4-----------------------------4-5-7---------|
A-----------------7-7---7-------0-2-5-5--5-----------------|
E-3-3---------------------0-X-0---------------------9-7-5--|

G------------------------------------------------------------|
D------------------------------------------------------------|
A------------------------------------------------------------|
E-5-X-5-7-8---8-X-8-/15-8-X-8---8-X-8-/15---8-X-8---8-X-8-8~-|

This is a challenging song for most who are just learning to play, but it will 
impress people. 100% correct.
            
Submit corrections

comments powered by Disqus
↑ Back to top | Salvador Bass for Shine. Lyrics for acoustic guitar and electric guitar. 1 Tablatures and chords are parodies/interpretations of the original songs. You may use it for private study, scholarship, research or language learning purposes only