» » »

Gannon Tabs (ver.1)

Artists:  A B C D E F G H I J K L M N O P Q R S T U V W X Y Z # 

Gannon Tabs (ver.1)

Salt The Wound
Rating:
4/5 (1 vote)

Hard to play? Try these video lessons and learn fast.
                (Intro)
-----------------------------------------------------------------------------
                             Gannon INTRO by Salt the Wound
-----------------------------------------------------------------------------

This is probably one of the best songs off of Carnal Repercussions.
This is just the intro, i don't have the rest.

Tuning: Drop A

e|--------------------------------------------------------------------------|
B|--------------------------------------------------------------------------|
G|--------------------------------------------------------------------------|
D|-------------------8--------8-10------10-12-------------------------------|
A|---------5----------8-8~--------10---------12~----------------------------|
D|-000-000---0-8p5-0-------00--------00-------------------------------------|

e|--------------------------------------------------------------------------|
B|--------------------------------------------------------------------------|
G|--------------------------------------------------------------------------|
D|-------------------8------------------------------------------------------|
A|---------5----------8-8~---3--3-3-1/6\1-----------------------------------|
D|-000-000---0-8p5-0-------33-33-3—-1/6\1-----------------------------------|
            
Hard to play? Try these video lessons and learn fast. | Correct




comments powered by Disqus
↑ Back to top | Tablatures and chords are parodies/interpretations of the original songs. You may use it for private study, scholarship, research or language learning purposes only