» » »

Better Than This Bass tabs (ver.1)

Artists:  A B C D E F G H I J K L M N O P Q R S T U V W X Y Z # 

Better Than This Bass tabs (ver.1)

Salt The Wound
Rating:
0/5 (0 votes)

Hard to play? Try these video lessons and learn fast.
                Bass tabs for "Better Than This" By Salt The Wound.
I've gotten some of it from other sites and other parts I did by ear.
Not 100 percent sure it's correct but it's quite close.
And mistakes message me at




After faded in intro.

Enter at: 0:07
|--------------------------------------------|
|--------------------------------------------|
|---8-12-10-----------8-12-10------10--13--12|
|-00-------00000000088---------1010----------|

|-----------------------------------------------------|
|-----------------------------------------------------|
|---8-12-10-------------5--8--7---7--10--8------------|
|-00-------000000000-5----------7---------------------|



|--------------------------------------------|
|--------------------------------------------|
|---8-12-10-----------8-12-10------10--13--12|
|-00-------00000000088---------1010----------|

|-----------------------------------------------------|
|-----------------------------------------------------|
|---8-12-10-------------5--8--7---7--10---------------|
|-00-------000000000-5----------7---------------------|

Not sure How many times just listen for it
|---------------------------------------------|
|---------------------------------------------|
|---------------------------------------------|
|-0-0-0-0-0-0-8-8-5-5-5-5-1-1-1-1-0-0-0-0-0-0-|

Continue
|---------------------------|
|---------------------------|
|---------------------------|
|-8-8-5-5-5-5-10-10-7-7-12s-| Play both parts together 2 times.
 
|---------------------------|                             
|---------------------------|                            
|---------------------------| 
|-00-8-5-4-5-4--343-2-232-1-| around 4 times.


|------------------------------------------------|
|------------------------------------------------|
|------------------------------------------------|
|-000-888-555-444-555-444-333-222-000-888-555-444|

|---------------------------------|
|---------------------------------|
|---------------------------------|
|-000-888-555-444-555-444-333-222-|


|---------------------------------|
|---------------------------------|
|---------------------------------|
|-000-888-555-444-5-4-3--4-3-2----|

|--------------------------------|
|--------------------------------|
|---------------------4~---------|
|-0~--8~--4~--5-1--0~-----10-9-7-|


|--------------------------------------------|-------|       
|--------------------------------------------|       |
|---8-12-10-----------8-12-10------10--13--12|       |
|-00-------00000000088---------1010----------|       |
                                                     x2
|----------------------------------------------|     |
|----------------------------------------------|     |
|---8-12-10------------5-8-7-7-10-8------------|     |
|-00-------000000000-5------7------------------|-----|



|------------------------------------------|---|   
|---8-12-10-----------8-12-10-----10-13-12-|   |
|------------------------------------------|   |
|-0---------0-0-0-0-8---------10-----------|   |
                                               x2
|-------------------------------------|        |
|---8-12-10------------5-8-7---7-10-8-|        |
|-------------------------------------|        |
|-0---------0-0000-0-5-------7--------|--------|


Breakdown
E|---------------------------|
B|---------------------------|
G|---------------------------|
D|---------------------------|
A|---------------------------|
E|-0-0-0--0000000--00000-0-0-| [x4]

|------------------------------------------|---|   
|---8-12-10-----------8-12-10-----10-13-12-|   |
|------------------------------------------|   |
|-0---------0-0-0-0-8---------10-----------|   |
                                               x2
|-------------------------------------|        |
|---8-12-10------------5-8-7---7-10-8-|        |
|-------------------------------------|        |
|-0---------0-0000-0-5-------7--------|--------|


|---------------------------|
|---------------------------|
|---------------------------|
|-0-0-0--0000000--00000-0-0-| [x4]


Enjoy.

 
            
Hard to play? Try these video lessons and learn fast. | Correct




comments powered by Disqus
↑ Back to top | Tablatures and chords are parodies/interpretations of the original songs. You may use it for private study, scholarship, research or language learning purposes only