» » »

Salt The Wound, A Slight Burning Sensation Tabs (ver.1)

Artists:  A B C D E F G H I J K L M N O P Q R S T U V W X Y Z # 

A Slight Burning Sensation Tabs (ver.1)

Salt The Wound Tabs
 Rating:
4/5 (4 votes)
A Slight Burning Sensation lessons Tabs too difficult? Try these video lessons and learn fast
1
                1)C
2)G
3)D#
4)A#
5)F
6)A#

LEGEND
* Harmonic
\ Slide Up
My First Tab ever made. So critics welcome. 

|---------------------------------------------------------------------------|
|---------------------------------------------------------------------------|
|---------------------------------------------------------------------------|
|------------------------------------------------------8*-------------------|
|-------8-8\7---8--------------------8---8\7---7-7-7-7----------------------|
|---000--0----0---0-0-0-0-0-0-0--8-8---8-----0-7-7-7-7----------------------|


|---------------------------------------------------------------------------|
|---------------------------------------------------------------------------|
|---------------------------------------------------------------------------|
|---------------------------------------------------------------------------|
|-------8-8\7---8---------------------6---6\5----10--8---7--5-5-------------|
|---000--0----0---0-0-0-0-0-0-0---5-5---5------5---5---5--------------------|


|---------------------------------------------------------------------------|
|---------------------------------------------------------------------------|
|---------------------------------------------------------------------------|
|------------------------------------------------------7*-------------------|
|-------8-8\7---8--------------------8---8\7---7-7-7-7----------------------|
|---000--0----0---0-0-0-0-0-0-0--8-8---8-----0-7-7-7-7----------------------|


|---------------------------------------------------------------------------|
|---------------------------------------------------------------------------|
|---------------------------------------------------------------------------|
|---------------------------------------------------------------------------|
|-------8-8\7---8---------------------6---6\5----10--8---7--5-5-------------|
|---000--0----0---0-0-0-0-0-0-0---5-5---5------5---5---5--------------------|


|---------------------------------------------------------------------------|
|---------------------------------------------------------------------------|
|---------------------------------------------------------------------------|
|---------------------------------------------------------------------------|
|----------------------0-0-0-0--0-0--0-0----8\7----10\8----12\10-----10\8---|
|---0000---0000ringout-0-0-0-0--0-0--0-0-5-5---7-7------8-8-------7-7-------|


|---------------------------------------------------------------------------|
|---------------------------------------------------------------------------|
|---------------------------------------------------------------------------|
|---------------------------------------------------------------------------|
|----------------------0-0-0-0--0-0--0-0----8\7----10\8----12\10-----10\8---|
|---0000---0000ringout-0-0-0-0--0-0--0-0-5-5---7-7------8-8-------7-7-------|


|---------------------------------------------------------------------------|
|---------------------------------------------------------------------------|
|---------------------------------------------------------------------------|
|---------------------------------------------------------------------------|
|-000-000-000-000--000-000------8\7----10\8----12\10-----10\8---------------|
|-000-000-000-000--000-000---5-5---7-7------8-8-------7-7-------------------|


|---------------------------------------------------------------------------|
|---------------------------------------------------------------------------|
|---------------------------------------------------------------------------|
|---------------------------------------------------------------------------|
|-0-0-0-0--0-0--0-0--5-5-5--5-5-7-8---------888888--------777777------------|
|-0-0-0-0--0-0--0-0--5-5-5--5-5-7-8--000000--------888888--------555555-----|


|---------------------------------------------------------------------------|
|---------------------------------------------------------------------------|
|---------------------------------------------------------------------------|
|---------------7----------------------------------------------------7------|
|-------8-----------------888888--------777777---------------8--------------|
|--7777----8888----000000--------888888--------555555---7777----8888--------|


|---------------------------------------------------------------------------|
|---------------------------------------------------------------------------|
|---------------------------------------------------------------------------|
|---------------------------------------------------7-----------------------|
|--------888888--------777777---------------8-------------------------------|
|-000000--------888888--------555555---7777----8888-------------------------|


|---------------------------------------------------------------------------|
|---------------------------------------------------------------------------|
|---------------------------------------------------------------------------|
|---------------------------------------------------7-----------------------|
|--------888888--------777777---------------8-------------------------------|
|-000000--------888888--------555555---7777----8888------0000---0000ringout-|


|---------------------------------------------------------------------------|
|---------------------------------------------------------------------------|
|---------------------------------------------------------------------------|
|------------------------------------------------------8*-------------------|
|-------8-8\7---8--------------------8---8\7---7-7-7-7----------------------|
|---000--0----0---0-0-0-0-0-0-0--8-8---8-----0-7-7-7-7----------------------|


|---------------------------------------------------------------------------|
|---------------------------------------------------------------------------|
|---------------------------------------------------------------------------|
|---------------------------------------------------------------------------|
|-------8-8\7---8---------------------6---6\5----10--8---7--5-5-------------|
|---000--0----0---0-0-0-0-0-0-0---5-5---5------5---5---5--------------------|



|---------------------------------------------------------------------------|
|---------------------------------------------------------------------------|
|---------------------------------------------------------------------------|
|------------------------------------------------------8*-------------------|
|-------8-8\7---8--------------------8---8\7---7-7-7-7----------------------|
|---000--0----0---0-0-0-0-0-0-0--8-8---8-----0-7-7-7-7----------------------|


|---------------------------------------------------------------------------|
|---------------------------------------------------------------------------|
|---------------------------------------------------------------------------|
|---------------------------------------------------------------------------|
|-------8-8\7---8---------------------6---6\5----10--8---7--5-5-------------|
|---000--0----0---0-0-0-0-0-0-0---5-5---5------5---5---5--------------------|


|---------------------------------------------------------------------------|
|---------------------------------------------------------------------------|
|---------------------------------------------------------------------------|
|---------7------------10-8-7-----------------7---------------------8*------|
|-0--8-10---10-8-7--0---------10-8-7--0--8-10---10-8-7--777-777-777---------|
|-0-----------------0-----------------0-----------------777-777-777---------|


|---------------------------------------------------------------------------|
|---------------------------------------------------------------------------|
|---------------------------------------------------------------------------|
|---------7------------10-8-7-----------------7-----------------------------|
|-0--8-10---10-8-7--0---------10-8-7--0--8-10---10-8-7--8-7-10-8-0----------|
|-0-----------------0-----------------0-----------------8-7-10-8-0----------|


|---------------------------------------------------------------------------|
|---------------------------------------------------------------------------|
|---------------------------------------------------------------------------|
|---------------------------------------------------------------------------|
|--1-3-4-------0--1--3-3-3-4-4-4-3-3-3--0--1--3-3-3-4-4-4-3-----------------|
|--1-3-4-4*----0--1--3-3-3-4-4-4-3-3-3--0--1--3-3-3-4-4-4-3-----------------|


|---------------------------------------------------------------------------|
|---------------------------------------------------------------------------|
|---------------------------------------------------------------------------|
|---------------------------------------------------------------------------|
|-0-0000-0-0000-0-0000-0-0000-1-1111-1-1111-3-3333-4-4444-------------------|
|-0-0000-0-0000-0-0000-0-0000-1-1111-1-1111-3-3333-4-4444-4*----------------|


|---------------------------------------------------------------------------|
|---------------------------------------------------------------------------|
|---------------------------------------------------------------------------|
|---------------------------------------------------------------------------|
|-0-0000-0-0000-0-0000-0-0000-1-1111-1-1111-3-3333-4-4444-------------------|
|-0-0000-0-0000-0-0000-0-0000-1-1111-1-1111-3-3333-4-4444-4*----------------|


|---------------------------------------------------------------------------|
|---------------------------------------------------------------------------|
|---------------------------------------------------------------------------|
|---------------------------------------------------------------------------|
|-0-0000-0-0000-0-0000-0-0000-1-1111-1-1111-3-3333-4-4444-------------------|
|-0-0000-0-0000-0-0000-0-0000-1-1111-1-1111-3-3333-4-4444-4*----------------|


|---------------------------------------------------------------------------|
|---------------------------------------------------------------------------|
|---------------------------------------------------------------------------|
|---------------------------------------------------------------------------|
|-0-0000-0-0000-0-0000-0-0000-1-1111-1-1111-3-3333-4-4444-0-----------------|
|-0-0000-0-0000-0-0000-0-0000-1-1111-1-1111-3-3333-4-4444-0-----------------|
            
Submit corrections

comments powered by Disqus
↑ Back to top | Salt The Wound Tabs for A Slight Burning Sensation. Lyrics for acoustic guitar and electric guitar. 1 Tablatures and chords are parodies/interpretations of the original songs. You may use it for private study, scholarship, research or language learning purposes only