» » »

Saliva, Your Disease Tabs (ver.3)

Artists:  A B C D E F G H I J K L M N O P Q R S T U V W X Y Z # 

Your Disease Tabs (ver.3)

Saliva Tabs
 Rating:
4/5 (4 votes)
Your Disease lessons Tabs too difficult? Try these video lessons and learn fast
                TUNING:C# G# C# F# A# D# = Db Ab Db Gb Bb Eb
/=slide down
\=slide up
b=bend
p=pull off
h=HAMER
*AND THERE ARE NORMALY 2 GUITARS BUT I THINK THEY ALL DO THE SAME THING AT THE SAME TIME EXCEPT FOR THE INTRO*
**This tab wasn't like this before though so i changed it but if u want a good version check version number 1 of "Your Disease" but my version is the same!!!* 
intro 1:
---------------------------
---------------------------
---666666667777777---------
---000000000000000---------
---------------------------
---------------------------

intro 2:
---------------------------
---------------------------
---------------------------
---5p3-5-3h5-3-0--3h0------
---5p3-5-3h5-3-0--3h0------
---5p3-5-3h5-3-0--3h0------

verse:
-------------------------------------
-------------------------------------
-------------------------------------
---0-h3-0-h3-/5-6-6-6-5\(3)----------
---0-h3-0-h3-/5-6-6-6-5\(3)----------
---0-h3-0-h3-/5-6-6-6-5\(3)----------
these "()" mean that they're played but u cant really here them.

chorus:
-----------------------------------------------------------
-----------------------------------------------------------
---7------------5------------3------------5----------------
---7--let ring--5--let ring--3--let ring--5---let ring-----
---5------------3------------1------------3h5-3h5-3h5-3h5--
-----------------------------------------------------------
(in the chorus, the last power chord that you let ring
 is a part that's hammered by one of the guitarists so
 you might have to do without it)
solo:
------8-------------------------8-------------------------
---------8h7--7h8--h7--h7--h7-------8-7--7h8h7---8b10-----
----------------------------------------------------------
----------------------------------------------------------
----------------------------------------------------------
----------------------------------------------------------

bridge:
---7-7-7-7-7-7-7-11-11-11-11-11-11-11-11-7-7-7-7-7-7-7-7-9-9-9-9-9-9-9-9--
---x-x-x-x-x-x-x-x--x--x--x--x--x--x--x--x-x-x-x-x-x-x-x-x-x-x-x-x-x-x-x--
---5-5-5-5-5-5-5-0--9--9--9--9--9--9--9--0-5-5-5-5-5-5-5-0-7-7-7-7-7-7-7--

ending:
-------------------------------------
-------------------------------------
-------------------------------------
---7--7--7--7--5--5--5--5--3--3--3--3--5--5--5--5---7-----------
---7--7--7--7--5--5--5--5--3--3--3--3--5--5--5--5---7--let ring
---5--5--5--5--3--3--3--3--1--1--1--1--3--3--3--3---5-----------

order:
intro 1 x4
intro 2 x4
verse x10
chorus x3
intro 1 x4
verse x10 
solo x1
drums only
bridge x6
chorus x3
ending x3
            
Submit corrections

comments powered by Disqus
↑ Back to top | Saliva Tabs for Your Disease. Lyrics for acoustic guitar and electric guitar. Tablatures and chords are parodies/interpretations of the original songs. You may use it for private study, scholarship, research or language learning purposes only