» » »

Weight Of The World Tabs (ver.2)

Artists:  A B C D E F G H I J K L M N O P Q R S T U V W X Y Z # 

Weight Of The World Tabs (ver.2)

Saliva
Rating:
0/5 (0 votes)

Hard to play? Try these video lessons and learn fast.
                This is the tab for Weight of the World, track two on 'Back in your System'
Its Tuned Half a Step Down and its in Drop D from there...

/ = Slide
* = Palm Mute

Intro

Guitar 1: Clean

 ----------------------------------------------------------------
 ----------------------------------------------------------------
 ----------------------------------------------------------------
 --4-4-4-11-11-11-9--4-4-4-11-11-11-9--4-4-4-11-11-11-9--4-4-4-11
 --4-4-4-11-11-11-9--4-4-4-11-11-11-9--4-4-4-11-11-11-9--4-4-4-11
 --4-4-4-11-11-11-9--4-4-4-11-11-11-9--4-4-4-11-11-11-9--4-4-4-11
       *

Guitar 2: Clean

 --------
 --------
 --------
 -4-4-4-0
 -4-4-4-0
 -4-4-4-0 Repeat in time with Guitar 1


Second Intro

Guitar 1:

 ------------------------
 ------------------------
 ------------------------
 -0-4-4-4-4-4-0-4-4-4-4-0
 -0-4-4-4-4-4-0-4-4-4-4-0
 -0-4-4-4-4-4-0-4-4-4-4-0 (8 Times, on the 4th time guitar 2 comes in) 

Guitar 2:

 ----------
 ----------
 ----------
 ----------
 -4-5/7/4-0
 ---------- 


Verse

Bass only...

 -----
 -----
 -----
 -4-0-


Bridge: Both Guitars


 --------------------------------------------------------
 --------------------------------------------------------
 --------------------------------------------------------
 -2-2-2-2-2-2-2-0-0-0-0-0-0-0-4-4-4-4-4-4-4-2-2-2-2-2-2-2
 -2-2-2-2-2-2-2-0-0-0-0-0-0-0-4-4-4-4-4-4-4-2-2-2-2-2-2-2
 -2-2-2-2-2-2-2-0-0-0-0-0-0-0-4-4-4-4-4-4-4-2-2-2-2-2-2-2 Twice
      *             *             *             *


Chorus: Both Guitars

 ------------------------ 					  ------------	
 ------------------------   			      		  ------------
 ------------------------					  ------------
 -4-4-4-7-7-7-2-2-2-0-0-0					  -0-0-0-7-7-7	
 -4-4-4-7-7-7-2-2-2-0-0-0					  -0-0-0-7-7-7
 -4-4-4-7-7-7-2-2-2-0-0-0 4 times    On the last time finish with -0-0-0-7-7-7



Solo

Guitar 1: 

 ----------------------------------------------------
 ----------------------------------------------------
 ----------------------------------------------------
 -9-9-9-9-9-9-9-9-9-9-9-9-9-9-7-7-7-7-7-7-7-7-7-7-7-7
 -9-9-9-9-9-9-9-9-9-9-9-9-9-9-7-7-7-7-7-7-7-7-7-7-7-7
 -9-9-9-9-9-9-9-9-9-9-9-9-9-9-7-7-7-7-7-7-7-7-7-7-7-7


Guitar 2:

 ------------------------------------------------------------------
 ------------------------------------------------------------------
 ------------------------------------------------------------------
 -13/9-14/12/11-12p11/9-13/9-14/12/11-12p11/9-13/9-14/12/11-12p11/9
 -----9---------------------9---------------------9----------------
 ------------------------------------------------------------------

Order

Intro Riff
Second Intro
Verse
Bridge
Chorus
Verse
Bridge
Solo
Intro
Chorus
Second Intro 

Hope this is right if not feel free to correct...
            
Hard to play? Try these video lessons and learn fast. | Correct




comments powered by Disqus
↑ Back to top | Tablatures and chords are parodies/interpretations of the original songs. You may use it for private study, scholarship, research or language learning purposes only