>
 >
Weight Of The World

Weight Of The World Guitar Tabs

Saliva - Weight Of The World chords, tabs, tablatures, lyrics

Guitar lessons | Add/correct | Request | Top 50 tabs Artists:  A B C D E F G H I J K L M N O P Q R S T U V W X Y Z 0-9

Weight Of The World Guitar Tabs – Saliva

CD, Sheet music, Poster

Do you like Weight Of The World? Share with your friends now
Bass TabsChordsTabsTabs v2Tabs v3
SALIVA-WEIGHT OF THE WORLD 
BACK INTO YOUR SYSTEM

Tuning-Drop D down 1/2 step
.-palm mute
h-hammer on
p-pull off
^-bend

INTRO1
Gtr.1 Clean Electric
E----------------------------------------------------------
B-------------2--2--2p0-------------------2--2--2p0--------
G-------------2--2--2-0-------------------2--2--2-0--------
D--4-h6--4-4--0--0--0-0--X-X---4-h6--4-4--0--0--0-0--X-X---
A--4-----4-4--0--0--0-0--X-X---4-----4-4--0--0--0-0--X-X---
D--4-----4-4--0--0--0-0--X-X---4-----4-4--0--0--0-0--X-X---

E----------------------------------------------------------
B-------------2--2--2p0-------------------2----------------
G-------------2--2--2-0-------------------2----------------
D--4-h6--4-4--0--0--0-0--X-X---4-h6--4-4--0----------------
A--4-----4-4--0--0--0-0--X-X---4-----4-4--0----------------
D--4-----4-4--0--0--0-0--X-X---4-----4-4--0----------------

Gtr.2 Clean Electric
E----------------------------------------------------------
B----------------------------------------------------------
G----------------------------------------------------------
D--4-h6--4-4--10-10-10p8--X-X---4-h6--4-4--10-10-10p8-X-X--
A--4-----4-4--0--0--0--0--X-X---4-----4-4--0--0--0-0--X-X--
D--4-----4-4--0--0--0--0--X-X---4-----4-4--0--0--0-0--X-X--

E----------------------------------------------------------
B----------------------------------------------------------
G----------------------------------------------------------
D--4-h6--4-4--10-10-10p8--X-X---4-h6--4-4--10--------------
A--4-----4-4--0--0--0--0--X-X---4-----4-4--0---------------
D--4-----4-4--0--0--0--0--X-X---4-----4-4--0---------------

INTRO2
Gtr.1 Heavy Distortion
E--------------------
B--------------------
G--------------------
D--0-444-0-4444-000-- X 8
A--0-444-0-4444-000--
D--0-444-0-4444-000--
        .      .   .

Gtr.2 Heavy Distortion
E-------------------------------------
B-------------------------------------
G-------------------------------------
D--11-12--11/7-7--11-12--11/7-7/4-4---
A--X--X---X--X-X--X--X---X--X-X-X-X---
D--11-12--11/7-7--11-12--11/7-7/4-4---

VERSE
Gtr.1 Clean Electric

E----------
B----------
G----------
D--4---0---
A--4---0---
D--4---0---

Gtr.2 Clean Electric
E--4---0---
B--7---5---
G--6---2---
D--4---0---
A----------
D----------

PRE-CHORUS
Gtr.1 Heavy Distortion
E----------------------------------------
B----------------------------------------
G----------------------------------------
D--2-XX-222-0-XX-000-4-XX-44-2-XX-22222--
A--2-XX-222-0-XX-000-4-XX-44-2-XX-22222--
D--2-XX-222-0-XX-000-4-XX-44-2-XX-22222--

Gtr.2 Heavy Distortion
E--------------------------------------------
B--------------------------------------------
G--9-XX-999-7-XX-777-11-XX-11-11-9-XX-99999--
D--9-XX-999-7-XX-777-11-XX-11-11-9-XX-99999--
A--7-XX-777-5-XX-555-9--XX-9--9--7-XX-77777--
D--------------------------------------------

CHORUS
Gtr.1 and 2
E-------------------------------
B-------------------------------
G-------------------------------
D---44-XX-77777--22-XX-00000-00- X 4
A---44-XX-77777--22-XX-00000-00-
D---44-XX-77777--22-XX-00000-00-

INTRO1 (Both Gtrs)

VERSE (Both Gtrs)

PRE-CHORUS (Both Gtrs)

CHORUS (Both Gtrs)

BRIDGE

GTR.2
E----------------------------------     -------------
B----------------------------------     -------------
G----------------------------------     -------------
D--9/11-9/4-4--/14-12-11h12p11-9/7- X 3 ---11^-11----
A----------------------------------     -------------
D----------------------------------     -------------

Gtr.1
E----------------------------------     -------------------------------
B----------------------------------     --------------2--2--2p0--------
G----------------------------------     --------------2--2--2-0--------
D--9/11-9/4-4--/14-12-11h12p11-9/7- X 3 ---4-h6--4-4--0--0--0-0--X-X---
A----------------------------------     ---4-----4-4--0--0--0-0--X-X---
D----------------------------------     ---4-----4-4--0--0--0-0--X-X---

E----------------------------------------------------------------------------
B--------------2--2--2p0--------------------2--2--2p0--------------------2---
G--------------2--2--2-0--------------------2--2--2-0--------------------2---
D---4-h6--4-4--0--0--0-0--X-X----4-h6--4-4--0--0--0-0--X-X----4-h6--4-4--0---
A---4-----4-4--0--0--0-0--X-X----4-----4-4--0--0--0-0--X-X----4-----4-4--0---
D---4-----4-4--0--0--0-0--X-X----4-----4-4--0--0--0-0--X-X----4-----4-4--0---

Gtr.2
E--------------------------------4----------------------------0--------------
B--------------------------------7----------------------------5--------------
G--------------------------------6----------------------------2--------------
D----------------------------------------------------------------------------
A----------------------------------------------------------------------------
D----------------------------------------------------------------------------

CHORUS
Gtr.1 and 2
E-------------------------------     ----------------------------
B-------------------------------     ----------------------------
G-------------------------------     ----------------------------
D---44-XX-77777--22-XX-00000-00- X 3 -44-XX-77777--000-2-2222222-
A---44-XX-77777--22-XX-00000-00-     -44-XX-77777--000-2-2222222-
D---44-XX-77777--22-XX-00000-00-     -44-XX-77777--000-2-2222222-

Gtr.1 and 2
E-----------------------     ------------
B-----------------------     ------------
G-----------------------     ------------
D--4444-4444-222-000-00- X 4 -0000-2222--
A--4444-4444-222-000-00-     -0000-2222--
D--4444-4444-222-000-00-     -0000-2222--

Gtr.1
INTRO2

Gtr.1 & 2
INTRO1





Comments


Popular Saliva tabs & chords
After Me Bass Tabs
King Of The Stereo Bass Tabs
Bleed For Me Chords
Always 2 Tabs
Batista Theme Intro Tabs
Doperide (Intro) Tabs
Lackluster 1 Tabs
Nothing Intro Tabs
Pride Tabs
Rock And Roll Revolution Tabs


Song lyrics



↑ Back to top | Tablatures and chords are parodies/interpretations of the original songs. You may use it for private study, scholarship, research or language learning purposes only
© 2014 AZChords.com Contact us | Privacy policy | DMCA | Add/correct tabs | Request tabs | Top 50 tabs