» » »

Turn The Tables Tabs (ver.1)

Artists:  A B C D E F G H I J K L M N O P Q R S T U V W X Y Z # 

Turn The Tables Tabs (ver.1)

Saliva
Rating:
0/5 (0 votes)

Hard to play? Try these video lessons and learn fast.
                (Intro)
Saliva
Turn the Tables

Intro:

|---------------------------------------------------|
|---------------------------------------------------|
|---x---x---3-x-x---x---1---x---x---3-x-x---x---1---|
|---x---x---3-x-x---x---1---x---x---3-x-x---x---1---|
|---------------------------------------------------|
|---------------------------------------------------|

|---------------------------------------------------|
|---------------------------------------------------|
|---x---x---3-x-x---x---1---x---x---3-x-x---x---1-2-|
|---x---x---3-x-x---x---1---x---x---3-x-x---x---1-2-|
|---------------------------------------------------|
|---------------------------------------------------|
            
Hard to play? Try these video lessons and learn fast. | Correct




comments powered by Disqus
↑ Back to top | Tablatures and chords are parodies/interpretations of the original songs. You may use it for private study, scholarship, research or language learning purposes only