» » »

Superstar Ii Tabs (ver.1)

Artists:  A B C D E F G H I J K L M N O P Q R S T U V W X Y Z # 

Superstar Ii Tabs (ver.1)

Saliva
Rating:
0/5 (0 votes)

Hard to play? Try these video lessons and learn fast.
                Song is done in drop d tunings ….half a step down
Solo is not near finished but gives any guitarist a start 
Strumming to the interlude is to the players (you) liking

ENJOY!



INTRO:
  (x 4)
E----------------------------------------------------------------------
B----------------------------------------------------------------------
G----------------------------------------------------------------------
D-----12-------3/10---------3---3h555p0-----------3h555p0---------5p3--
A-----12-------3/10---------3---3h555p0-----------3h555p0---------5p3--
D-----12-------3/10---------3---3h555p0-----------3h555p0---------5p3--


VERSE:
  (x4)
E------------------------------------------
B------------------------------------------
G------------------------------------------
D--0000---3333---5555---6666---6p3---------
A--0000---3333---5555---6666---6p3---------
D--0000---3333---5555---6666---6p3---------

CHORUS:
    (x4)
E--------------------------------------------------------
B--------------------------------------------------------
G--------------------------------------------------------
D----12p10h12---10p8h10------5p3h5---5p3h5-------555p3---
A----12p10h12---10p8h10------5p3h5---5p3h5-------555p3---
D----12p10h12---10p8h10------5p3h5---5p3h5-------555p3---

VERSE: 



CHORUS:






INTERLUDE 
  (Before Solo x4)
E------------------------------------------------------------------------
B------------------------------------------------------------------------
G------------------------------------------------------------------------
D----7---7---777--7----5--5--555--5-----8--8--888--8-----7---7---777--7--
A----7---7---777--7----5--5--555--5-----8--8--888--8-----7---7---777--7--
D----7---7---777--7----5--5--555--5-----8--8--888--8-----7---7---777--7--


A START TO THE SOLO
(Not enough time in my day...lol)
E---------------------------------------
B---------------------------------------
G----------/\---------------------------
D-------5/\--\/--5h6p5\3--5-------------
A---------------------------------------
D---------------------------------------


/\ bend to higher pitch
\/ release bend
h hammer on 
p pull off
            
Hard to play? Try these video lessons and learn fast. | Correct




comments powered by Disqus
↑ Back to top | Tablatures and chords are parodies/interpretations of the original songs. You may use it for private study, scholarship, research or language learning purposes only