» » »

Saliva, Rest In Pieces Tabs (ver.2)

Artists:  A B C D E F G H I J K L M N O P Q R S T U V W X Y Z # 

Rest In Pieces Tabs (ver.2)

Saliva Tabs
 Rating:
4/5 (4 votes)
Rest In Pieces lessons Tabs too difficult? Try these video lessons and learn fast
                Could'nt find the tab anywhere , Great song. listen to the song for timing.
Its also my first one so it isnt perfect but it will get you started. feel free to make corrections. 

1/2 step down tuning   (low to high) Eb Ab Db Gb Bb Eb

Intro
|-------------2----------------------------0------------------|
|--------3-------3----3---------------3-------3-----3---------|
|-----2----2--------2--------------0----0--------0------------| x2
|---0--------------------------0------------------------------|
|-------------------------------------------------------------|
|-------------------------------------------------------------|


Verse
|-------------2----------------------------0------------------|
|--------3-------3----3---------------3-------3-----3---------|
|-----2----2--------2--------------0----0--------0------------| x2
|---0--------------------------0------------------------------|
|-------------------------------------------------------------|
|-------------------------------------------------------------|


|---------------2--------------------------2------------------|
|----------3------3---3----------------3-----3---3------------|
|-------0----0------0----------------0---0-----0--------------|
|-------------------------------------------------------------|
|---2-----------------------------4---------------------------|
|-------------------------------------------------------------|
   
                                                      
|------------3-----------------------------3--------------3---|
|-------3------3---3-------------------3-----3---3--------3---|
|-----0---0------0-------------------0---0-----0----------0---|
|--0------------------------------0-----------------------0---|
|-------------------------------------------------------------|
|-------------------------------------------------------------|
                                           destroy my life...

Chorus
|-------------------------------------------------------------|
|-------------------------------------------------------------|
|----4----7------------{3---5}------4---7----------{3---5}----|
|----4----7-----5------{3---5}------4---7---5------{3---5}----|
|----2----5-----5------{1---3}------2---5---5------(1---3}----|
|---------------3---------------------------3-----------------|
                           {optional)
                     
Bridge
|---------------2--------------------------2------------------|
|----------3------3---3----------------3-----3---3------------|
|-------0----0------0----------------0---0-----0--------------|
|----------------------------------0--------------------------|
|---2---------------------------------------------------------|
|-------------------------------------------------------------|

|---------------3--------------------------3------------------|
|----------3------3---3----------------3-----3---3------------|
|-------0----0------0----------------0---0-----0--------------|
|-------------------------------------------------------------|
|-------------------------------------------------------------|
|----3--------------------------3-----------------------------|
            
Submit corrections

comments powered by Disqus
↑ Back to top | Saliva Tabs for Rest In Pieces. Lyrics for acoustic guitar and electric guitar. Tablatures and chords are parodies/interpretations of the original songs. You may use it for private study, scholarship, research or language learning purposes only