» » »

Saliva, Raise Up Tabs (ver.1)

Artists:  A B C D E F G H I J K L M N O P Q R S T U V W X Y Z # 

Raise Up Tabs (ver.1)

Saliva Tabs
Rating:
0/5 (0 votes)
Raise Up lessons Tabs too difficult? Try these video lessons and learn fast
                -------------------------------------------------------------------------------
-------------------------------------------------------------------------------

Tuning: Drop D and a half  ( C# G# C# F# A# D# ) or ( Db Ab Db Gb Bb Eb )



Intro  Part 1


Eb|------------------------------------------------------------------------|
Bb|------------------------------------------------------------------------|
Gb|------------------------------------------------------------------------|   x2
Db|-0--0-1-0-1--0--0-1-0-1h3--00--0-1-0-1--0--0-1-0-1h3--------------------|
Ab|-0--0-1-0-1--0--0-1-0-1h3--00--0-1-0-1--0--0-1-0-1h3--------------------|   Both guitars
Db|-0--0-1-0-1--0--0-1-0-1h3--00--0-1-0-1--0--0-1-0-1h3--------------------|




Intro Part 2


Eb|------------------------------------------------------------------------|
Bb|------------------------------------------------------------------------|  (guitar 1)
Gb|------------------------------------------------------------------------|
Db|-00~ -------------------------33~ --------------------------------------|  
Ab|-00~ -------------------------33~ --------------------------------------|       
Db|-00~ -------------------------33~ --------------------------------------|


Eb|------------------------------------------------------------------------|
Bb|------------------------------------------------------------------------|  (guitar 2)
Gb|----7----------------------------7--------------------------------------|
Db|-00-x-------------------------33-x--------------------------------------| 
Ab|-00-5-------------------------33-5--------------------------------------|       
Db|-00-0-------------------------33-0--------------------------------------|






Eb|------------------------------------------------------------------------|
Bb|------------------------------------------------------------------------|  (guitar 1)
Gb|------------------------------------------------------------------------|
Db|-55~ -------------------------3-3-3-55-6666-----------------------------|  
Ab|-55~ -------------------------3-3-3-55-6666-----------------------------|       
Db|-55~ -------------------------3-3-3-55-6666-----------------------------|


Eb|------------------------------------------------------------------------|
Bb|------------------------------------------------------------------------|  (guitar 2)
Gb|----7-------------------------------------------------------------------|
Db|-55-x-------------------------3-3-3-55-6666-----------------------------| 
Ab|-55-5-------------------------3-3-3-55-6666-----------------------------|       
Db|-55-0-------------------------3-3-3-55-6666-----------------------------|





Verse



Eb|------------------------------------------------------------------------|
Bb|------------------------------------------------------------------------|
Gb|------------------------------------------------------------------------|   x2
Db|------------------------------------------------------------------------|
Ab|-0--0-1-0-1--0--0-1-0-1h3--00--0-1-0-1--0--0-1-0-1h3--------------------|   Both guitars palm muted
Db|-0--0-1-0-1--0--0-1-0-1h3--00--0-1-0-1--0--0-1-0-1h3--------------------|





Eb|------------------------------------------------------------------------|
Bb|------------------------------------------------------------------------|
Gb|-14-14-14-14-14-14-14-14-14--15-15-15-15-15-15-15-15--------------------|
Db|-x--x--x--x--x--x--x--x--x---x--x--x--x--x--x--x--x---------------------|   Guitar 1
Ab|-12-12-12-12-12-12-12-12-12--13-13-13-13-13-13-13-13--------------------|
Db|------------------------------------------------------------------------|


Eb|------------------------------------------------------------------------|
Bb|------------------------------------------------------------------------|
Gb|------------------------------------------------------------------------| 
Db|-0--0-1-0-1--0--0-1-0-1h3---00--0-1-0-1--0--0-1-0-1h3-------------------|
Ab|-0--0-1-0-1--0--0-1-0-1h3---00--0-1-0-1--0--0-1-0-1h3-------------------|   Guitar 2
Db|-0--0-1-0-1--0--0-1-0-1h3---00--0-1-0-1--0--0-1-0-1h3-------------------|






Eb|------------------------------------------------------------------------|
Bb|------------------------------------------------------------------------|
Gb|-12-12-12-12-12-12-12-12-12--11-11-11-11-11-11-11-11--------------------|
Db|-x--x--x--x--x--x--x--x--x---x--x--x--x--x--x--x--x---------------------|   Guitar 1
Ab|-10-10-10-10-10-10-10-10-10--9--9--9--9--9--9--9--9---------------------|
Db|------------------------------------------------------------------------|


Eb|------------------------------------------------------------------------|
Bb|------------------------------------------------------------------------|
Gb|------------------------------------------------------------------------| 
Db|-0--0-1-0-1--0--0-1-0-1h3---00--0-1-0-1--0--0-1-0-1h3-------------------|
Ab|-0--0-1-0-1--0--0-1-0-1h3---00--0-1-0-1--0--0-1-0-1h3-------------------|   Guitar 2
Db|-0--0-1-0-1--0--0-1-0-1h3---00--0-1-0-1--0--0-1-0-1h3-------------------|





Pre-Chorus  x2



Eb|------------------------------------------------------------------------|
Bb|------------------------------------------------------------------------|
Gb|------------------------------------------------------------------------|
Db|-0-3-5-0--0555---0-3-5-0--0666------------------------------------------|  Both Guitars
Ab|-0-3-5-0--0555---0-3-5-0--0666------------------------------------------|
Db|-0-3-5-0--0555---0-3-5-0--0666------------------------------------------|




Chorus  x2



Eb|------------------------------------------------------------------------|
Bb|------------------------------------------------------------------------|  (guitar 1)
Gb|------------------------------------------------------------------------|
Db|-00~ ----------------------33~ -----------------------------------------|  
Ab|-00~ ----------------------33~ -----------------------------------------|       
Db|-00~ ----------------------33~ -----------------------------------------|


Eb|------------------------------------------------------------------------|
Bb|------------------------------------------------------------------------|  (guitar 2)
Gb|----7-------------------------7-----------------------------------------|
Db|-00-x----------------------33-x-----------------------------------------| 
Ab|-00-5----------------------33-5-----------------------------------------|       
Db|-00-0----------------------33-0-----------------------------------------|





                            1st ending                2nd Ending
Eb|------------------------------------|-----------------------------------|
Bb|------------------------------------|-----------------------------------|  (guitar 1)
Gb|------------------------------------|-----------------------------------|
Db|-55~ ----------------------33~ -----|---------3-3-3-55-6666-------------|  
Ab|-55~ ----------------------33~ -----|---------3-3-3-55-6666-------------|       
Db|-55~ ----------------------33~ -----|---------3-3-3-55-6666-------------|


Eb|------------------------------------|-----------------------------------|
Bb|------------------------------------|-----------------------------------|  (guitar 2)
Gb|----7-------------------------7-----|-----------------------------------|
Db|-55-x----------------------33-x-----|---------3-3-3-55-6666-------------| 
Ab|-55-5----------------------33-5-----|---------3-3-3-55-6666-------------|       
Db|-55-0----------------------33-0-----|---------3-3-3-55-6666-------------|






Verse



Eb|------------------------------------------------------------------------|
Bb|------------------------------------------------------------------------|
Gb|------------------------------------------------------------------------|   x2
Db|------------------------------------------------------------------------|
Ab|-0--0-1-0-1--0--0-1-0-1h3--00--0-1-0-1--0--0-1-0-1h3--------------------|   Both guitars palm muted
Db|-0--0-1-0-1--0--0-1-0-1h3--00--0-1-0-1--0--0-1-0-1h3--------------------|





Eb|------------------------------------------------------------------------|
Bb|------------------------------------------------------------------------|
Gb|-14-14-14-14-14-14-14-14-14--15-15-15-15-15-15-15-15--------------------|
Db|-x--x--x--x--x--x--x--x--x---x--x--x--x--x--x--x--x---------------------|   Guitar 1
Ab|-12-12-12-12-12-12-12-12-12--13-13-13-13-13-13-13-13--------------------|
Db|------------------------------------------------------------------------|


Eb|------------------------------------------------------------------------|
Bb|------------------------------------------------------------------------|
Gb|------------------------------------------------------------------------| 
Db|-0--0-1-0-1--0--0-1-0-1h3---00--0-1-0-1--0--0-1-0-1h3-------------------|
Ab|-0--0-1-0-1--0--0-1-0-1h3---00--0-1-0-1--0--0-1-0-1h3-------------------|   Guitar 2
Db|-0--0-1-0-1--0--0-1-0-1h3---00--0-1-0-1--0--0-1-0-1h3-------------------|






Eb|------------------------------------------------------------------------|
Bb|------------------------------------------------------------------------|
Gb|-12-12-12-12-12-12-12-12-12--11-11-11-11-11-11-11-11--------------------|
Db|-x--x--x--x--x--x--x--x--x---x--x--x--x--x--x--x--x---------------------|   Guitar 1
Ab|-10-10-10-10-10-10-10-10-10--9--9--9--9--9--9--9--9---------------------|
Db|------------------------------------------------------------------------|


Eb|------------------------------------------------------------------------|
Bb|------------------------------------------------------------------------|
Gb|------------------------------------------------------------------------| 
Db|-0--0-1-0-1--0--0-1-0-1h3---00--0-1-0-1--0--0-1-0-1h3-------------------|
Ab|-0--0-1-0-1--0--0-1-0-1h3---00--0-1-0-1--0--0-1-0-1h3-------------------|   Guitar 2
Db|-0--0-1-0-1--0--0-1-0-1h3---00--0-1-0-1--0--0-1-0-1h3-------------------|




Pre-Chorus  x2



Eb|------------------------------------------------------------------------|
Bb|------------------------------------------------------------------------|
Gb|------------------------------------------------------------------------|
Db|-0-3-5-0--0555---0-3-5-0--0666------------------------------------------|  Both Guitars
Ab|-0-3-5-0--0555---0-3-5-0--0666------------------------------------------|
Db|-0-3-5-0--0555---0-3-5-0--0666------------------------------------------|





Chorus  x2



Eb|------------------------------------------------------------------------|
Bb|------------------------------------------------------------------------|  (guitar 1)
Gb|------------------------------------------------------------------------|
Db|-00~ ----------------------33~ -----------------------------------------|  
Ab|-00~ ----------------------33~ -----------------------------------------|       
Db|-00~ ----------------------33~ -----------------------------------------|


Eb|------------------------------------------------------------------------|
Bb|------------------------------------------------------------------------|  (guitar 2)
Gb|----7-------------------------7-----------------------------------------|
Db|-00-x----------------------33-x-----------------------------------------| 
Ab|-00-5----------------------33-5-----------------------------------------|       
Db|-00-0----------------------33-0-----------------------------------------|





                            1st ending                2nd Ending
Eb|------------------------------------|-----------------------------------|
Bb|------------------------------------|-----------------------------------|  (guitar 1)
Gb|------------------------------------|-----------------------------------|
Db|-55~ ----------------------33~ -----|---------3-3-3-55-6666-------------|  
Ab|-55~ ----------------------33~ -----|---------3-3-3-55-6666-------------|       
Db|-55~ ----------------------33~ -----|---------3-3-3-55-6666-------------|


Eb|------------------------------------|-----------------------------------|
Bb|------------------------------------|-----------------------------------|  (guitar 2)
Gb|----7-------------------------7-----|-----------------------------------|
Db|-55-x----------------------33-x-----|---------3-3-3-55-6666-------------| 
Ab|-55-5----------------------33-5-----|---------3-3-3-55-6666-------------|       
Db|-55-0----------------------33-0-----|---------3-3-3-55-6666-------------|





Bridge 1



Eb|------------------------------------------------------------------------|
Bb|------------------------------------------------------------------------|
Gb|-14-14-14-14-14-14-14-14-14--15-15-15-15-15-15-15-15--------------------|
Db|-x--x--x--x--x--x--x--x--x---x--x--x--x--x--x--x--x---------------------|   Guitar 1
Ab|-12-12-12-12-12-12-12-12-12--13-13-13-13-13-13-13-13--------------------|
Db|------------------------------------------------------------------------|


Eb|------------------------------------------------------------------------|
Bb|------------------------------------------------------------------------|
Gb|------------------------------------------------------------------------| 
Db|-0--0-1-0-1--0--0-1-0-1h3---00--0-1-0-1--0--0-1-0-1h3-------------------|
Ab|-0--0-1-0-1--0--0-1-0-1h3---00--0-1-0-1--0--0-1-0-1h3-------------------|   Guitar 2 palm muted
Db|-0--0-1-0-1--0--0-1-0-1h3---00--0-1-0-1--0--0-1-0-1h3-------------------|




Eb|------------------------------------------------------------------------|
Bb|------------------------------------------------------------------------|
Gb|-12-12-12-12-12-12-12-12-12--14-14-14-14-14-14-14-14--------------------|
Db|-x--x--x--x--x--x--x--x--x---x--x--x--x--x--x--x--x---------------------|   Guitar 1
Ab|-10-10-10-10-10-10-10-10-10--12-12-12-12-12-12-12-12--------------------|
Db|------------------------------------------------------------------------|


Eb|------------------------------------------------------------------------|
Bb|------------------------------------------------------------------------|
Gb|------------------------------------------------------------------------| 
Db|-0--0-1-0-1--0--0-1-0-1h3---00--0-1-0-1--0--0-1-0-1h3-------------------|
Ab|-0--0-1-0-1--0--0-1-0-1h3---00--0-1-0-1--0--0-1-0-1h3-------------------|   Guitar 2 palm muted
Db|-0--0-1-0-1--0--0-1-0-1h3---00--0-1-0-1--0--0-1-0-1h3-------------------|




Eb|------------------------------------------------------------------------|
Bb|------------------------------------------------------------------------|
Gb|-14-14-14-14-14-14-14-14-14--15-15-15-15-15-15-15-15--------------------|
Db|-x--x--x--x--x--x--x--x--x---x--x--x--x--x--x--x--x---------------------|   Guitar 1
Ab|-12-12-12-12-12-12-12-12-12--13-13-13-13-13-13-13-13--------------------|
Db|------------------------------------------------------------------------|


Eb|------------------------------------------------------------------------|
Bb|------------------------------------------------------------------------|
Gb|------------------------------------------------------------------------| 
Db|-0--0-1-0-1--0--0-1-0-1h3---00--0-1-0-1--0--0-1-0-1h3-------------------|
Ab|-0--0-1-0-1--0--0-1-0-1h3---00--0-1-0-1--0--0-1-0-1h3-------------------|   Guitar 2
Db|-0--0-1-0-1--0--0-1-0-1h3---00--0-1-0-1--0--0-1-0-1h3-------------------|




Eb|------------------------------------------------------------------------|
Bb|------------------------------------------------------------------------|
Gb|-12-12-12-12-12-12-12-12-12--11-11-11-11-11-11-11-11--------------------|
Db|-x--x--x--x--x--x--x--x--x---x--x--x--x--x--x--x--x---------------------|   Guitar 1
Ab|-10-10-10-10-10-10-10-10-10--9--9--9--9--9--9--9--9---------------------|
Db|------------------------------------------------------------------------|


Eb|------------------------------------------------------------------------|
Bb|------------------------------------------------------------------------|
Gb|------------------------------------------------------------------------| 
Db|-0--0-1-0-1--0--0-1-0-1h3---00--0-1-0-1--0--0-1-0-1h3-------------------|
Ab|-0--0-1-0-1--0--0-1-0-1h3---00--0-1-0-1--0--0-1-0-1h3-------------------|   Guitar 2
Db|-0--0-1-0-1--0--0-1-0-1h3---00--0-1-0-1--0--0-1-0-1h3-------------------|




Bridge 2


Eb|------------------------------------------------------------------------|
Bb|------------------------------------------------------------------------|
Gb|------------------------------------------------------------------------|
Db|-00---00---00---00---0-0-0-0-0-0-0-0-0-0-0-0-0-0-0-0-0-0-0-0-0-0-0-0----|   Both Guitars 
Ab|-00---00---00---00---0-0-0-0-0-0-0-0-0-0-0-0-0-0-0-0-0-0-0-0-0-0-0-0----|   Palm Muted Alternating Strokes
Db|-00---00---00---00---0-0-0-0-0-0-0-0-0-0-0-0-0-0-0-0-0-0-0-0-0-0-0-0----|

Eb|------------------------------------------------------------------------|
Bb|------------------------------------------------------------------------|
Gb|------------------------------------------------------------------------|
Db|-0-0-0-0--0-3-3-3--3-5556666--------------------------------------------|   Both Guitars
Ab|-0-0-0-0--0-3-3-3--3-5556666--------------------------------------------|
Db|-0-0-0-0--0-3-3-3--3-5556666--------------------------------------------|




Chorus/ Outro  x2





Eb|------------------------------------------------------------------------|
Bb|------------------------------------------------------------------------|  (guitar 1)
Gb|------------------------------------------------------------------------|
Db|-00~ ----------------------33~ -----------------------------------------|  
Ab|-00~ ----------------------33~ -----------------------------------------|       
Db|-00~ ----------------------33~ -----------------------------------------|


Eb|------------------------------------------------------------------------|
Bb|------------------------------------------------------------------------|  (guitar 2)
Gb|----7-------------------------7-----------------------------------------|
Db|-00-x----------------------33-x-----------------------------------------| 
Ab|-00-5----------------------33-5-----------------------------------------|       
Db|-00-0----------------------33-0-----------------------------------------|





                            1st ending                2nd Ending
Eb|------------------------------------|-----------------------------------|
Bb|------------------------------------|-----------------------------------|  (guitar 1)
Gb|------------------------------------|-----------------------------------|
Db|-55~ ----------------------33~ -----|---------3-3-3-55-6666-------------|  
Ab|-55~ ----------------------33~ -----|---------3-3-3-55-6666-------------|       
Db|-55~ ----------------------33~ -----|---------3-3-3-55-6666-------------|


Eb|------------------------------------|-----------------------------------|
Bb|------------------------------------|-----------------------------------|  (guitar 2)
Gb|----7-------------------------7-----|-----------------------------------|
Db|-55-x----------------------33-x-----|---------3-3-3-55-6666-------------| 
Ab|-55-5----------------------33-5-----|---------3-3-3-55-6666-------------|       
Db|-55-0----------------------33-0-----|---------3-3-3-55-6666-------------|





| /  slide up
| \  slide down
| h  hammer-on
| p  pull-off
| ~  vibrato
| +  harmonic
| x  Mute note
===============================================================================
            
Submit corrections

comments powered by Disqus
↑ Back to top | Saliva Tabs for Raise Up. Lyrics for acoustic guitar and electric guitar. Tablatures and chords are parodies/interpretations of the original songs. You may use it for private study, scholarship, research or language learning purposes only