» » »

Saliva, King Of The Stereo Tabs (ver.2)

Artists:  A B C D E F G H I J K L M N O P Q R S T U V W X Y Z # 

King Of The Stereo Tabs (ver.2)

Saliva Tabs
 Rating:
4.3/5 (6 votes)
King Of The Stereo lessons Tabs too difficult? Try these video lessons and learn fast
                 KING OF THE STEREO
   I Love This Catchy Song, I was listening to it and I've played guitar
  for alomst eight years, and I mostly play things in the D Aeolian. So I
   Could hear what he was playing. Wayne Swinny has a great solo in the
   song, but I am still working that out. This is a Tab of what I do know
  at this point. I have the tapping and sliding octave parts of the solo
   but not yet the actual solo. I hope you guys like what I have, but don't
  be too critical about it this is one of my first tabs.


  Tuning: Drop Db.(All Strings Dropped Down Half-Step and first string
  tuned down full step)


  Intro 2x

  eb--------------|
  Bb--1-----------|
  Gb--3(Bend)-----|
  Db--------------|

  Chorus Riff (like 4 or 5 times)

  eb-------------------------------|
  Bb-------------------------------|
  Gb-------------------------------|
  Db--0--10h12--15p12\--55-33------|
  Ab--0--10h12--15p12\--55-33------|
  Db--0--10h12--15p12\--55-33------|

  I Don't know the Chorus Riff...but the Intro Bend Is
  In the Riff.

  Then The High Chords in the verse.

  eb--------------------------------|
  Bb--------------------------------|
  Gb--10h1212--12p10--\7------------|
  Db--10h1212--12p10--\7------------|
  Ab--------------------------------|
  Db--------------------------------|

  " THe Whole World Is Waiting For the..."
   Reapeat 1 more time
  eb-----------------------------|
  Bb-----------------------------|
  Gb-----------------------------|
  Db-33333/55555-----------------|
  Ab-11111/33333-----------------|
  Db-----------------------------|


  Then the breakdown before the solo

  eb-----------------------------|
  Bb-----------------------------|
  Gb-----------------------------|
  Db-----12\---------------------|
  Ab-----12\-Slide down----------|
  Db-----12\--------------/10----|


  Octave slide at end of solo.

  eb-----------------------------|
  Bb-----------------------------|
  Gb--5\7\8\10\-17\14\19\21------|
  Db--x\x\x\x-\--x\-x\-x\-x------|
  Ab--3\5\6\8-\-15\12\17\19------|
  Db-----------------------------|

   TAPPED PART

  eb-----------------------------|
  Bb--10-t16--13-t16--10-t16-----| And So On...
  Gb-----------------------------|
  Db-----------------------------|
  Ab-----------------------------|
  Db-----------------------------|

  And Really thats Basically It...Please i know it needs Work,
   If you are able to make changes and fix mistakes please feel free to.
  A Solo and Fixes on the rest needs to be done. This is only a support to
  work off of.
          Thanks - STEVEN DUNGAN
            
Submit corrections

comments powered by Disqus
↑ Back to top | Saliva Tabs for King Of The Stereo. Lyrics for acoustic guitar and electric guitar. Tablatures and chords are parodies/interpretations of the original songs. You may use it for private study, scholarship, research or language learning purposes only