» » »

Saliva, Holdin' On Tabs (ver.1)

Artists:  A B C D E F G H I J K L M N O P Q R S T U V W X Y Z # 

Holdin' On Tabs (ver.1)

Saliva Tabs
 Rating:
4/5 (4 votes)
Holdin' On lessons Tabs too difficult? Try these video lessons and learn fast
1
                This is the intro to Saliva's Holdin On.
It may not be all right, but i know every note pretty good.

               here it is, play it with a mild dist.
/=Slide
P=Pull off
H=Hammer on


E---------------------
B----2/6-6-6-2-p0-0-h2
G----2/6-6------------
D---------------------
A---------------------
D---------------------

E-----------------------------
B----2/6-6--------------------
G----2/6-6-2/6-6-4------4-----
D----------2/6-6--6-4-6---6---
A---------------------------4-
D-----------------------------
                   ^^^ Play That fast
If its not that accurate, sorry. Its really kind of a hard song to pick out.
            
Submit corrections

comments powered by Disqus
↑ Back to top | Saliva Tabs for Holdin' On. Lyrics for acoustic guitar and electric guitar. 1 Tablatures and chords are parodies/interpretations of the original songs. You may use it for private study, scholarship, research or language learning purposes only