» » »

Faultline Bass tabs (ver.1)

Artists:  A B C D E F G H I J K L M N O P Q R S T U V W X Y Z # 

Faultline Bass tabs (ver.1)

Saliva
Rating:
4/5 (1 vote)

Hard to play? Try these video lessons and learn fast.
                Saliva - Faultline

bass tab


5-stringed bass
G D A E B

   INTRO/VERSO
G-|---------------------------------------|
D-|---------------------------------------|
A-|-------2-----------------42------------|
E-|-2-4-4---24-2-44-2-44-24----24-244-244-|
B-|---------------------------------------|
                                                                              
 
   CORO 1
G-|-------*------|---|----------|
D-|-------*------|---|----------|
A-|-00000-*------|---|-22222222-|
E-|-------*22222-|---|----------|
B-|-------*------|---|----------|
                   +                                                           

   CORO 2
G-|----------|-------|--------------|---|-----------|
D-|----------|-------|--------------|---|-----------|
A-|----------|-00000-|--------------|---|-0---------|
E-|----------|-------|-2222-0-------|---|------2----|
B-|----------|-------|--------22222-|---|-----------|
    coro 1 +                          +                                        

Mando congratulaciones a La Pamela Blacutt que toca la guitarra en la banda
donde toco, pero son pues full rockeros oye, pero cuando les he querido
dar mis temas de cumbias me lo han botado al suelo y lo han pisado, tambien
para que llevo Maroyu si son rockeros.

doky2007
            
Hard to play? Try these video lessons and learn fast. | Correct




comments powered by Disqus
↑ Back to top | Tablatures and chords are parodies/interpretations of the original songs. You may use it for private study, scholarship, research or language learning purposes only