» » »

Saliva, Don't Question My Heart Tabs (ver.1)

Artists:  A B C D E F G H I J K L M N O P Q R S T U V W X Y Z # 

Don't Question My Heart Tabs (ver.1)

Saliva Tabs
Rating:
3/5 (2 votes)
Don't Question My Heart lessons Tabs too difficult? Try these video lessons and learn fast
                tune ur guitar 2 drop d one half step down. i know i may be a little wrong at da intro, 
da song, but is still fine. i know im kinda not good at makin tabs though. sorry, i dont 
da solo yet.

            intro   no.1
    e|----------------------|
    b|----------------------|
    g|----------------------|   x11
    d|-------3-------5-3----|
    a|-----5--5-----5---5---|
    d|-0-7-----7-5-5--------|

   no.2
    e|----------------------|
    b|----------------------|
    g|----------------------|
    d|-0-0-3-5---0-0-3------|
    a|-0-0-3-5---0-0-3------|
    d|-0-0-3-5-6-0-0-3-6-5--|

            no.3

    e|------------------------|
    b|------------------------|
    g|------------------------|  <-- after doin dis, go bak to no.2
    d|888888885555555588888888|
    a|888888885555555588888888|
    d|888888885555555588888888|
                                  no.4
    e|----------------------------------------|
    b|----------------------------------------|
    g|----------------------------------------|
    d|8888888855555555888888881010101010101010|    they're 10's, not 1's
    a|8888888855555555888888881010101010101010|
    d|8888888855555555888888881010101010101010|
        no.5
    e|--------|
    b|--------|
    g|--------| <-- x4
    d|-0-0-3--|
    a|-0-0-3--|
    d|-0-0-3--|


   dis is all i know.
            
Submit corrections

comments powered by Disqus
↑ Back to top | Saliva Tabs for Don't Question My Heart. Lyrics for acoustic guitar and electric guitar. Tablatures and chords are parodies/interpretations of the original songs. You may use it for private study, scholarship, research or language learning purposes only