» » »

Broken Sunday Tabs (ver.1)

Artists:  A B C D E F G H I J K L M N O P Q R S T U V W X Y Z # 

Broken Sunday Tabs (ver.1)

Saliva
Rating:
4/5 (4 votes)

Hard to play? Try these video lessons and learn fast.
                
This is just my interpretation of what the song sounds like, it is by no means all correct.

This is basically the rhythm guitar part + solo

You should be able to get the strumming pattern from listening to the song

Tuning:Drop D (all strings down half a step)Db Ab Db Gb Bb eb

0.08 Intro (Pre-Verse)(distorted)
e|-----------------5-----------------------------------------------------|
B|-------------6---3-----------------------------------------------------|
G|-------------5---2-----------------------------------------------------|x8
D|--0---0-0-0--3-0-0-----------------------------------------------------|
A|--0---0-0-0--3-0-0-----------------------------------------------------|
D|--0---0-0-0--3-0-0-----------------------------------------------------|

0.23 Verse(clean)
e|-------------------------------------------------------------------------|
B|----------6-----------6-----------5-----------5--------------------------|
G|-------------7-----------7-----------5-----------5-----------------------|
D|------7------------7-----------5-----------5--------------8-----------8--|
A|---5------------5-----------3-----------3--------------5-----5-----5---5-|
D|----------------------------------------------------5-----------5--------|

e|-----------------------------------------------------------------------|x4
B|-----------------------------------------------------------------------|
G|-------7-----------7---------------------------------------------------|
D|-----------------------------------------------------------------------|
A|----8-----8-----8-----8------------------------------------------------|
D|-8-----------8---------------------------------------------------------|

0.52 Pre-chorus (distorted)
e|-------------------------------------------------------------------------|
B|-------------------------------------------------------------------------|
G|-------------------------------------------------------------------------|
D|-5-5-5--5-5-5--5-5--5-5-5--5-5-5--5-5--8-8-8--8-8-8--8-8--8-8-8--8-8-8--8|
A|-5-5-5--5-5-5--5-5--5-5-5--5-5-5--5-5--8-8-8--8-8-8--8-8--8-8-8--8-8-8--8|
D|-5-5-5--5-5-5--5-5--5-5-5--5-5-5--5-5--8-8-8--8-8-8--8-8--8-8-8--8-8-8--8|

e|---|
B|---|
G|---|x2
D|-8-|
A|-8-|
D|-8-|


1.06 Chorus (distorted)
e|-0-0-0-0-0-0-----------------------------------------------------------|
B|-3-3-3-3-3-3-----------------------------------------------------------|
G|-2-2-2-2-2-2--5-5-5-5-5-5--2-2-2-2-2-2---------------------------------|
D|-0-0-0-0-0-0--5-5-5-5-5-5--2-2-2-2-2-2--5-5-5-5-5-5--------------------|x2
A|-0-0-0-0-0-0--3-3-3-3-3-3--0-0-0-0-0-0--5-5-5-5-5-5--------------------|
D|-0-0-0-0-0-0----------------------------5-5-5-5-5-5--------------------|

Intro (Pre-verse) x4

Verse x2

Pre-chorus x2

Chorus x 4

2.33 Bridge (distorted)
e|-0----------------0-0--------------0-0-0------------0-0-0-0-0-0-0-0-0-0-0-
B|-3----------------3-3--------------3-3-3------------3-3-3-3-3-3-3-3-3-3-3-
G|-2----------------2-2--------------2-2-3------------2-2-2-2-2-2-2-2-2-2-2-
D|-0-0-0-0-0-0-0-0--0-0-0-0-0-0-0-0--0-0-0-0-0-0-0-0--0-0-0-0-0-0-0-0-0-0-0-
A|-0-0-0-0-0-0-0-0--0-0-0-0-0-0-0-0--0-0-0-0-0-0-0-0--0-0-0-0-0-0-0-0-0-0-0-
D|-0-0-0-0-0-0-0-0--0-0-0-0-0-0-0-0--0-0-0-0-0-0-0-0--0-0-0-0-0-0-0-0-0-0-0-
   pm.............    pm...........      pm.........

e|-0-0-0-0-0|
B|-3-3-3-3-3|
G|-2-2-2-2-2|
D|-0-0-0-0-0|
A|-0-0-0-0-0|
D|-0-0-0-0-0|

2.41 solo (distorted)
e|-15b-15b-15b-15b--------------------------------------------------------|
B|-----------------13-15-----16----12b-12---------------------------------|
G|-----------------------/14----14--------14-13-12-10------------10-------|
D|---------------------------------------------------------10-12--------10|
A|-----------------------------------------------------/12----------/12---|
D|------------------------------------------------------------------------|

e|------------------------------------------------------------------------|
B|-----------------------13-13-----13-13----13-13---------------13----13b-|
G|----12br-10-12-10--/14-------/14-------14-------\12----10-/14----14-----|
D|-12-------------------------------------------------12------------------|
A|------------------------------------------------------------------------|
D|------------------------------------------------------------------------|


Pre-chorus x2

Chorus x4

Intro (pre-verse) x4


| /  slide up
| \  slide down
| h  hammer-on
| p  pull-off
| ~  vibrato
| +  harmonic
| x  Mute note

Hope you have fun playing it!!!
============================================================================
            
Hard to play? Try these video lessons and learn fast. | Correct




comments powered by Disqus
↑ Back to top | Tablatures and chords are parodies/interpretations of the original songs. You may use it for private study, scholarship, research or language learning purposes only