» » »

Saliva, After Me Tabs (ver.2)

Artists:  A B C D E F G H I J K L M N O P Q R S T U V W X Y Z # 

After Me Tabs (ver.2)

Saliva Tabs
Rating:
5/5 (5 votes)
After Me lessons Tabs too difficult? Try these video lessons and learn fast
                Saliva - After Me

This song is kick ass. 
Tuning: C# A D G B E low to high
Intro(muted)
|-------------------------------------------------------------|
|-------------------------------------------------------------|
|-------------------------------------------------------------|
|-------------------------------------------------------------|
|-------------------------------------------------------------|
|-0--7--0--7--0--5-5-5-5-5-5/8--8--8-8-8\7--7--7--------------|

Distorted
|-------------------------------------------------|
|-------------------------------------------------|
|-------------------------------------------------|
|-------------------------------------------------|    REPEAT TWICE
|-------------------------------------------------|
|-0--7--0--7-0--5-5-5-5-5-5--3--8--8-8-8-8\7--7--7|

|---------------------------------------------|
|---------------------------------------------|
|---------------------------------------------|  REPEAT FOUR TIMES
|---4--6--4---------4--7--6-------------------|
|-4--------------4----------------------------|
|---------------------------------------------|

|-----------------------------------------------|
|-----------------------------------------------|
|-6------4-----2-----4------6------4-----2----4-|
|-6------4-----2-----4------6------4-----2----4-|
|-4------2-----0-----2------4------2-----0----2-|
|-----------------------------------------------|

"THE WORLD IS AFTER ME..."
|----------------------------------------------------|
|----------------------------------------------------|
|----------------------------------------------------|  REPEAT TWICE
|----------------------------------------------------|
|----------------------------------------------------|
|-0--7--0--7--0--5--5-5-5-5-5--3--8--8-8-8-8\7--7--7-|

|----------------------------------------------------|
|----------------------------------------------------|
|----------------------------------------------------|
|---4--6--4------4--7--6-----------------------------|   REPEAT FOUR TIMES
|-4------------4-------------------------------------|
|----------------------------------------------------|

|----------------------------------------------------|
|----------------------------------------------------|
|-6-------4------2-------4-------6-----4------2----4-|
|-6-------4------2-------4-------6-----4------2----4-|
|-4-------2------0-------2-------4-----2------0----4-|
|----------------------------------------------------|

|----------------------------------------------------|
|----------------------------------------------------|
|----------------------------------------------------|  REPEAT TWICE
|----------------------------------------------------|
|----------------------------------------------------|
|-0--7--0--7--0--5--5-5-5-5-5--3--8--8-8-8-8\7--7--7-|

|----------------------------------------------------|
|----------------------------------------------------|
|----------------------------------------------------|
|-6/7-7-7----6/7-7-7------6/7-7-7----6/7-7-7---9--11-|
|-6/7-7-7----6/7-7-7------6/7-7-7----6/7-7-7---9--11-|
|-7/8-8-8----7/8-8-8------7/8-8-8----7/8-8-8--10--12-|  <--|
                                                           | PLAY THOSE TWO N REPEAT
|----------------------------------------------------|  <--| TWICE
|----------------------------------------------------|
|----------------------------------------------------|
|-6/7-7-7----6/7-7-7------6/7-7-7----6/7-7-7--6--4---|
|-6/7-7-7----6/7-7-7------6/7-7-7----6/7-7-7--6--4---|
|-7/8-8-8----7/8-8-8------7/8-8-8----7/8-8-8--7--5---|

SOLO:
|----------------4----4----4----4----4---------------|
|5--4--2--0---2----2----2----2----2----2-------------|
|----------------------------------------------------|   REPEAT THREE TIMES
|----------------------------------------------------|
|----------------------------------------------------|
|----------------------------------------------------|
                                                          
|----------2--4-------16---16---16---16---16---16~---|  <-- STILL PART OF SOLO
|-2--4--5----------14---14---14---14---14---14-------|
|----------------------------------------------------|
|----------------------------------------------------|
|----------------------------------------------------|
|----------------------------------------------------|

|----------------------------------------------------|
|----------------------------------------------------|
|-6-------4------2-------4-------6-----4------2----4-|   REPEAT TWICE
|-6-------4------2-------4-------6-----4------2----4-|
|-4-------2------0-------2-------4-----2------0----2-|
|----------------------------------------------------|

|----------------------------------------------------|
|----------------------------------------------------|
|----------------------------------------------------|  REPEAT FOUR TIMES
|----------------------------------------------------|
|----------------------------------------------------|
|-0--7--0--7--0--5--5-5-5-5-5--3--8--8-8-8-8\7--7--7-|

AND THERE YOU HAVE IT.  IT TOOK ME AWHILE TO FIGURE THIS OUT. SO ENJOY.
            
Submit corrections

comments powered by Disqus
↑ Back to top | Saliva Tabs for After Me. Lyrics for acoustic guitar and electric guitar. Tablatures and chords are parodies/interpretations of the original songs. You may use it for private study, scholarship, research or language learning purposes only