» » »

Saliva, After Me Bass tabs (ver.1)

Artists:  A B C D E F G H I J K L M N O P Q R S T U V W X Y Z # 

After Me Bass tabs (ver.1)

Saliva Tabs
 Rating:
4/5 (4 votes)
After Me lessons Tabs too difficult? Try these video lessons and learn fast
1
                Saliva - After me

bass tab


5-stringed bass
G D A E B

   INTRO
G-|----------------------------------|
D-|----------------------------------|
A-|----------------------------------|
E-|---4---4---22222/555-555\4444h5p4-|
B-|-2---2---2------------------------|
                                                                              
   CORO
G-|---------------------|
D-|---------------------|
A-|---------------------|
E-|-5555-4444-2222-0000-|
B-|---------------------|
                                                                              
   MIDDLE
G-|--------|---|----|---|----|---|----------|
D-|--------|---|----|---|----|---|----------|
A-|--------|---|-24-|---|----|---|----------|
E-|-2/5-55-|---|----|---|-42-|---|-22220000-|
B-|--------|---|----|---|----|---|----------|
             +        +        +                                               

G-|------------------|
D-|------------------|
A-|------------------|
E-|-----0-2-44-55555-|
B-|-2-4--------------|
                                
Les mando Salutos a: Marcelo U. Ovi, Rafo que fueron jefes de seccion de Percusion de la banda
del Instituto Americano el 99, 2000 y 2001.

doky2007                                              
            
Submit corrections

comments powered by Disqus
↑ Back to top | Saliva Bass for After Me. Lyrics for acoustic guitar and electric guitar. 1 Tablatures and chords are parodies/interpretations of the original songs. You may use it for private study, scholarship, research or language learning purposes only