» » »

Shooting Gallery Tabs (ver.1)

Artists:  A B C D E F G H I J K L M N O P Q R S T U V W X Y Z # 

Shooting Gallery Tabs (ver.1)

Saint Vitus
Rating:
0/5 (0 votes)

Hard to play? Try these video lessons and learn fast.
                
In C Standard tuning

Riff A
|----------|---------TRILL-----------19---|
|----------|-20-19-18h19p18--20-19-18--18-|
|----------|------------------------------|
|----------|------------------------------|
|------454-|------------------------------|
|-6-5-4----|------------------------------|

Riff A2
|-----------|
|-----------|
|-----------|
|-----------|
|-8-7-6-454-|
|-6-5-4-----|

Riff B
|-----------------|
|-----------------|
|-----------------|
|-----------------|
|-5--8--13--13/12-|
|-3--6--11--11/10-|

Riff C
|------------------------|
|------------------------|
|------------------------|
|------------------------|
|-5----------------13-12-|
|-3-333-6p3-333333-11-10-|

Riff D
|---------------------------|
|---------------------------|
|---------------------------|
|---------------------------|
|-5--88888/--13--1212121212-|
|-3--66666/--11--1010101010-|

No solo

listen to the song for the structure
            
Hard to play? Try these video lessons and learn fast. | Correct




comments powered by Disqus
↑ Back to top | Tablatures and chords are parodies/interpretations of the original songs. You may use it for private study, scholarship, research or language learning purposes only