» » »

Saint Vitus, Born Too Late Tabs (ver.1)

Artists:  A B C D E F G H I J K L M N O P Q R S T U V W X Y Z # 

Born Too Late Tabs (ver.1)

Saint Vitus Tabs
Rating:
5/5 (1 vote)
Born Too Late lessons Tabs too difficult? Try these video lessons and learn fast
                ----------------------------------------------



----------------------------------------------

This song is in D#. Listen to the song for how mouch to repeat the riffs-
and for the song structure. To play this song properly, take ALOT of-
psychadelics.

----------------------------------------------

GUIDE:
/ and \ - Slide
* - Strum Excessively
~ - Vibrato

----------------------------------------------


Intro:

D#|-----------------------------------------------------|
A#|-----------------------------------------------------|
F#|-----------------------------------------------------|
C#|-----------------------------------------------------|
G#|-----------------------------------------------------|
D#|-1/12-12-12-12-12\1/14-14-14-14-14\1/15-15-15-15-15\-|

Verse/Second Solo:

D#|---------------------------|
A#|---------------------------|
F#|---------------------------|
C#|-2---5/4-4-----2---5/7-7---|
G#|-2---5/4-4-----2---5/7-7---|
D#|-0---3/2-2-----0---3/5-5---|

D#|----------------|
A#|----------------|
F#|----------------|
C#|-2------5---7---|
G#|-2------5---7---|
D#|-0------3---5---|

Chorus/First Solo:

D#|------------------------------------------|
A#|------------------------------------------|
F#|------------------------------------------|
C#|--5/7-7-7-7-7-7-7---7/10---10~--7/9---9~--|
G#|--5/7-7-7-7-7-7-7---7/10--------7/9-------|
D#|--3/5-5-5-5-5-5-5---5/8---------5/7-------|

D#|-----------------------------------|
A#|-----------------------------------|
F#|--5/7-7-7-7-7-7-7---7/10-----7/9---|
C#|--5/7-7-7-7-7-7-7---7/10-----7/9---|
G#|--3/5-5-5-5-5-5-5---5/8------5/7---|
D#|-----------------------------------|


If you want to do the solos, just go apesh*t with the whammy bar and-
shred some random notes.

End:

            *     *
D#|------------------|
A#|------------------|
F#|------------------|
C#|-2---5/4-4-----2--|
G#|-2---5/4-4-----2--|
D#|-0---3/2-2-----0--| 

---------------------------------------------

Thats it. Doom FTW!

---------------------------------------------
            

comments powered by Disqus
↑ Back to top | Saint Vitus Tabs for Born Too Late. Lyrics for acoustic guitar and electric guitar. Tablatures and chords are parodies/interpretations of the original songs. You may use it for private study, scholarship, research or language learning purposes only